  0
SECTION
  2
HEADER
  9
$ACADVER
  1
AC1027
  9
$ACADMAINTVER
 70
   105
  9
$DWGCODEPAGE
  3
ANSI_1252
  9
$REQUIREDVERSIONS
160
                 0
  9
$INSBASE
 10
0.0
 20
0.0
 30
0.0
  9
$EXTMIN
 10
1.000000000000000E+20
 20
1.000000000000000E+20
 30
1.000000000000000E+20
  9
$EXTMAX
 10
-1.000000000000000E+20
 20
-1.000000000000000E+20
 30
-1.000000000000000E+20
  9
$LIMMIN
 10
0.0
 20
0.0
  9
$LIMMAX
 10
12.0
 20
9.0
  9
$ORTHOMODE
 70
     0
  9
$REGENMODE
 70
     1
  9
$FILLMODE
 70
     1
  9
$QTEXTMODE
 70
     0
  9
$MIRRTEXT
 70
     1
  9
$LTSCALE
 40
1.0
  9
$ATTMODE
 70
     1
  9
$TEXTSIZE
 40
0.2
  9
$TRACEWID
 40
0.05
  9
$TEXTSTYLE
  7
Standard
  9
$CLAYER
  8
0
  9
$CELTYPE
  6
ByLayer
  9
$CECOLOR
 62
   256
  9
$CELTSCALE
 40
1.0
  9
$DISPSILH
 70
     0
  9
$DIMSCALE
 40
1.0
  9
$DIMASZ
 40
0.18
  9
$DIMEXO
 40
0.0625
  9
$DIMDLI
 40
0.38
  9
$DIMRND
 40
0.0
  9
$DIMDLE
 40
0.0
  9
$DIMEXE
 40
0.18
  9
$DIMTP
 40
0.0
  9
$DIMTM
 40
0.0
  9
$DIMTXT
 40
0.18
  9
$DIMCEN
 40
0.09
  9
$DIMTSZ
 40
0.0
  9
$DIMTOL
 70
     0
  9
$DIMLIM
 70
     0
  9
$DIMTIH
 70
     1
  9
$DIMTOH
 70
     1
  9
$DIMSE1
 70
     0
  9
$DIMSE2
 70
     0
  9
$DIMTAD
 70
     0
  9
$DIMZIN
 70
     0
  9
$DIMBLK
  1

  9
$DIMASO
 70
     1
  9
$DIMSHO
 70
     1
  9
$DIMPOST
  1

  9
$DIMAPOST
  1

  9
$DIMALT
 70
     0
  9
$DIMALTD
 70
     2
  9
$DIMALTF
 40
25.4
  9
$DIMLFAC
 40
1.0
  9
$DIMTOFL
 70
     0
  9
$DIMTVP
 40
0.0
  9
$DIMTIX
 70
     0
  9
$DIMSOXD
 70
     0
  9
$DIMSAH
 70
     0
  9
$DIMBLK1
  1

  9
$DIMBLK2
  1

  9
$DIMSTYLE
  2
Standard
  9
$DIMCLRD
 70
     0
  9
$DIMCLRE
 70
     0
  9
$DIMCLRT
 70
     0
  9
$DIMTFAC
 40
1.0
  9
$DIMGAP
 40
0.09
  9
$DIMJUST
 70
     0
  9
$DIMSD1
 70
     0
  9
$DIMSD2
 70
     0
  9
$DIMTOLJ
 70
     1
  9
$DIMTZIN
 70
     0
  9
$DIMALTZ
 70
     0
  9
$DIMALTTZ
 70
     0
  9
$DIMUPT
 70
     0
  9
$DIMDEC
 70
     4
  9
$DIMTDEC
 70
     4
  9
$DIMALTU
 70
     2
  9
$DIMALTTD
 70
     2
  9
$DIMTXSTY
  7
Standard
  9
$DIMAUNIT
 70
     0
  9
$DIMADEC
 70
     0
  9
$DIMALTRND
 40
0.0
  9
$DIMAZIN
 70
     0
  9
$DIMDSEP
 70
    46
  9
$DIMATFIT
 70
     3
  9
$DIMFRAC
 70
     0
  9
$DIMLDRBLK
  1

  9
$DIMLUNIT
 70
     2
  9
$DIMLWD
 70
    -2
  9
$DIMLWE
 70
    -2
  9
$DIMTMOVE
 70
     0
  9
$DIMFXL
 40
1.0
  9
$DIMFXLON
 70
     0
  9
$DIMJOGANG
 40
0.7853981633974483
  9
$DIMTFILL
 70
     0
  9
$DIMTFILLCLR
 70
     0
  9
$DIMARCSYM
 70
     0
  9
$DIMLTYPE
  6

  9
$DIMLTEX1
  6

  9
$DIMLTEX2
  6

  9
$DIMTXTDIRECTION
 70
     0
  9
$LUNITS
 70
     2
  9
$LUPREC
 70
     4
  9
$SKETCHINC
 40
0.1
  9
$FILLETRAD
 40
0.5
  9
$AUNITS
 70
     0
  9
$AUPREC
 70
     0
  9
$MENU
  1
.
  9
$ELEVATION
 40
0.0
  9
$PELEVATION
 40
0.0
  9
$THICKNESS
 40
0.0
  9
$LIMCHECK
 70
     0
  9
$CHAMFERA
 40
0.0
  9
$CHAMFERB
 40
0.0
  9
$CHAMFERC
 40
0.0
  9
$CHAMFERD
 40
0.0
  9
$SKPOLY
 70
     0
  9
$TDCREATE
 40
2459133.344763935
  9
$TDUCREATE
 40
2459133.511430602
  9
$TDUPDATE
 40
2459133.344764028
  9
$TDUUPDATE
 40
2459133.511430694
  9
$TDINDWG
 40
0.0000000116
  9
$TDUSRTIMER
 40
0.0000000116
  9
$USRTIMER
 70
     1
  9
$ANGBASE
 50
0.0
  9
$ANGDIR
 70
     0
  9
$PDMODE
 70
     0
  9
$PDSIZE
 40
0.0
  9
$PLINEWID
 40
0.0
  9
$SPLFRAME
 70
     0
  9
$SPLINETYPE
 70
     6
  9
$SPLINESEGS
 70
     8
  9
$HANDSEED
  5
35B
  9
$SURFTAB1
 70
     6
  9
$SURFTAB2
 70
     6
  9
$SURFTYPE
 70
     6
  9
$SURFU
 70
     6
  9
$SURFV
 70
     6
  9
$UCSBASE
  2

  9
$UCSNAME
  2

  9
$UCSORG
 10
0.0
 20
0.0
 30
0.0
  9
$UCSXDIR
 10
1.0
 20
0.0
 30
0.0
  9
$UCSYDIR
 10
0.0
 20
1.0
 30
0.0
  9
$UCSORTHOREF
  2

  9
$UCSORTHOVIEW
 70
     0
  9
$UCSORGTOP
 10
0.0
 20
0.0
 30
0.0
  9
$UCSORGBOTTOM
 10
0.0
 20
0.0
 30
0.0
  9
$UCSORGLEFT
 10
0.0
 20
0.0
 30
0.0
  9
$UCSORGRIGHT
 10
0.0
 20
0.0
 30
0.0
  9
$UCSORGFRONT
 10
0.0
 20
0.0
 30
0.0
  9
$UCSORGBACK
 10
0.0
 20
0.0
 30
0.0
  9
$PUCSBASE
  2

  9
$PUCSNAME
  2

  9
$PUCSORG
 10
0.0
 20
0.0
 30
0.0
  9
$PUCSXDIR
 10
1.0
 20
0.0
 30
0.0
  9
$PUCSYDIR
 10
0.0
 20
1.0
 30
0.0
  9
$PUCSORTHOREF
  2

  9
$PUCSORTHOVIEW
 70
     0
  9
$PUCSORGTOP
 10
0.0
 20
0.0
 30
0.0
  9
$PUCSORGBOTTOM
 10
0.0
 20
0.0
 30
0.0
  9
$PUCSORGLEFT
 10
0.0
 20
0.0
 30
0.0
  9
$PUCSORGRIGHT
 10
0.0
 20
0.0
 30
0.0
  9
$PUCSORGFRONT
 10
0.0
 20
0.0
 30
0.0
  9
$PUCSORGBACK
 10
0.0
 20
0.0
 30
0.0
  9
$USERI1
 70
     0
  9
$USERI2
 70
     0
  9
$USERI3
 70
     0
  9
$USERI4
 70
     0
  9
$USERI5
 70
     0
  9
$USERR1
 40
0.0
  9
$USERR2
 40
0.0
  9
$USERR3
 40
0.0
  9
$USERR4
 40
0.0
  9
$USERR5
 40
0.0
  9
$WORLDVIEW
 70
     1
  9
$SHADEDGE
 70
     3
  9
$SHADEDIF
 70
    70
  9
$TILEMODE
 70
     1
  9
$MAXACTVP
 70
    64
  9
$PINSBASE
 10
0.0
 20
0.0
 30
0.0
  9
$PLIMCHECK
 70
     0
  9
$PEXTMIN
 10
1.000000000000000E+20
 20
1.000000000000000E+20
 30
1.000000000000000E+20
  9
$PEXTMAX
 10
-1.000000000000000E+20
 20
-1.000000000000000E+20
 30
-1.000000000000000E+20
  9
$PLIMMIN
 10
0.0
 20
0.0
  9
$PLIMMAX
 10
12.0
 20
9.0
  9
$UNITMODE
 70
     0
  9
$VISRETAIN
 70
     1
  9
$PLINEGEN
 70
     0
  9
$PSLTSCALE
 70
     1
  9
$TREEDEPTH
 70
  3020
  9
$CMLSTYLE
  2
Standard
  9
$CMLJUST
 70
     0
  9
$CMLSCALE
 40
1.0
  9
$PROXYGRAPHICS
 70
     1
  9
$MEASUREMENT
 70
     1
  9
$CELWEIGHT
370
    -1
  9
$ENDCAPS
280
     0
  9
$JOINSTYLE
280
     0
  9
$LWDISPLAY
290
     0
  9
$INSUNITS
 70
     4
  9
$HYPERLINKBASE
  1

  9
$STYLESHEET
  1

  9
$XEDIT
290
     1
  9
$CEPSNTYPE
380
     0
  9
$PSTYLEMODE
290
     1
  9
$FINGERPRINTGUID
  2
{246E0178-4693-45A3-A59F-D3A5EA56602A}
  9
$VERSIONGUID
  2
{FAEB1C32-E019-11D5-929B-00C0DF256EC4}
  9
$EXTNAMES
290
     1
  9
$PSVPSCALE
 40
0.0
  9
$OLESTARTUP
290
     0
  9
$SORTENTS
280
   127
  9
$INDEXCTL
280
     0
  9
$HIDETEXT
280
     1
  9
$XCLIPFRAME
280
     2
  9
$HALOGAP
280
     0
  9
$OBSCOLOR
 70
   257
  9
$OBSLTYPE
280
     0
  9
$INTERSECTIONDISPLAY
280
     0
  9
$INTERSECTIONCOLOR
 70
   257
  9
$DIMASSOC
280
     2
  9
$PROJECTNAME
  1

  9
$CAMERADISPLAY
290
     0
  9
$LENSLENGTH
 40
50.0
  9
$CAMERAHEIGHT
 40
0.0
  9
$STEPSPERSEC
 40
2.0
  9
$STEPSIZE
 40
6.0
  9
$3DDWFPREC
 40
2.0
  9
$PSOLWIDTH
 40
0.25
  9
$PSOLHEIGHT
 40
4.0
  9
$LOFTANG1
 40
1.570796326794897
  9
$LOFTANG2
 40
1.570796326794897
  9
$LOFTMAG1
 40
0.0
  9
$LOFTMAG2
 40
0.0
  9
$LOFTPARAM
 70
     7
  9
$LOFTNORMALS
280
     1
  9
$LATITUDE
 40
37.795
  9
$LONGITUDE
 40
-122.394
  9
$NORTHDIRECTION
 40
0.0
  9
$TIMEZONE
 70
 -8000
  9
$LIGHTGLYPHDISPLAY
280
     1
  9
$TILEMODELIGHTSYNCH
280
     1
  9
$CMATERIAL
347
44
  9
$SOLIDHIST
280
     0
  9
$SHOWHIST
280
     1
  9
$DWFFRAME
280
     2
  9
$DGNFRAME
280
     2
  9
$REALWORLDSCALE
290
     1
  9
$INTERFERECOLOR
 62
   256
  9
$CSHADOW
280
     0
  9
$SHADOWPLANELOCATION
 40
0.0
  0
ENDSEC
  0
SECTION
  2
CLASSES
  0
CLASS
  1
ACDBDICTIONARYWDFLT
  2
AcDbDictionaryWithDefault
  3
ObjectDBX Classes
 90
        0
 91
        4
280
     0
281
     0
  0
CLASS
  1
VISUALSTYLE
  2
AcDbVisualStyle
  3
ObjectDBX Classes
 90
     4095
 91
        4
280
     0
281
     0
  0
CLASS
  1
MATERIAL
  2
AcDbMaterial
  3
ObjectDBX Classes
 90
     1153
 91
        4
280
     0
281
     0
  0
CLASS
  1
SCALE
  2
AcDbScale
  3
ObjectDBX Classes
 90
     1153
 91
        4
280
     0
281
     0
  0
CLASS
  1
TABLESTYLE
  2
AcDbTableStyle
  3
ObjectDBX Classes
 90
     4095
 91
        4
280
     0
281
     0
  0
CLASS
  1
MLEADERSTYLE
  2
AcDbMLeaderStyle
  3
ACDB_MLEADERSTYLE_CLASS
 90
     4095
 91
        4
280
     0
281
     0
  0
CLASS
  1
SUN
  2
AcDbSun
  3
SCENEOE
 90
     1153
 91
        4
280
     0
281
     0
  0
CLASS
  1
DICTIONARYVAR
  2
AcDbDictionaryVar
  3
ObjectDBX Classes
 90
        0
 91
        4
280
     0
281
     0
  0
CLASS
  1
CELLSTYLEMAP
  2
AcDbCellStyleMap
  3
ObjectDBX Classes
 90
     1152
 91
        4
280
     0
281
     0
  0
ENDSEC
  0
SECTION
  2
TABLES
  0
TABLE
  2
VPORT
  5
8
330
0
100
AcDbSymbolTable
 70
     1
  0
VPORT
  5
29
330
8
100
AcDbSymbolTableRecord
100
AcDbViewportTableRecord
  2
*Active
 70
     0
 10
0.0
 20
0.0
 11
1.0
 21
1.0
 12
0.0
 22
0.0
 13
0.0
 23
0.0
 14
0.5
 24
0.5
 15
0.5
 25
0.5
 16
0.0
 26
0.0
 36
1.0
 17
0.0
 27
0.0
 37
-1000.0
 40
3841.073784471166
 41
1.743820224719101
 42
50.0
 43
4801.81168349265
 44
6727.724943158825
 50
0.0
 51
0.0
 71
     0
 72
   100
 73
     1
 74
     3
 75
     0
 76
     0
 77
     0
 78
     0
281
     0
 65
     1
110
0.0
120
0.0
130
0.0
111
1.0
121
0.0
131
0.0
112
0.0
122
1.0
132
0.0
 79
     0
146
0.0
348
2F
 60
     3
 61
     5
292
     1
282
     1
141
0.0
142
0.0
 63
   250
361
6D
  0
ENDTAB
  0
TABLE
  2
LTYPE
  5
5
330
0
100
AcDbSymbolTable
 70
     1
  0
LTYPE
  5
14
330
5
100
AcDbSymbolTableRecord
100
AcDbLinetypeTableRecord
  2
ByBlock
 70
     0
  3

 72
    65
 73
     0
 40
0.0
  0
LTYPE
  5
15
330
5
100
AcDbSymbolTableRecord
100
AcDbLinetypeTableRecord
  2
ByLayer
 70
     0
  3

 72
    65
 73
     0
 40
0.0
  0
LTYPE
  5
16
330
5
100
AcDbSymbolTableRecord
100
AcDbLinetypeTableRecord
  2
Continuous
 70
     0
  3
Solid line
 72
    65
 73
     0
 40
0.0
  0
ENDTAB
  0
TABLE
  2
LAYER
  5
2
330
0
100
AcDbSymbolTable
 70
     3
  0
LAYER
  5
10
330
2
100
AcDbSymbolTableRecord
100
AcDbLayerTableRecord
  2
0
 70
     0
 62
     7
  6
Continuous
370
    -3
390
F
347
46
348
0
  0
LAYER
  5
6E
330
2
100
AcDbSymbolTableRecord
100
AcDbLayerTableRecord
  2
ProfileEdges
 70
     0
 62
     7
  6
Continuous
370
    -3
390
F
347
46
348
0
  0
LAYER
  5
6F
330
2
100
AcDbSymbolTableRecord
100
AcDbLayerTableRecord
  2
SectionCutEdges
 70
     0
 62
     7
  6
Continuous
370
    -3
390
F
347
46
348
0
  0
ENDTAB
  0
TABLE
  2
STYLE
  5
3
330
0
100
AcDbSymbolTable
 70
     1
  0
STYLE
  5
11
330
3
100
AcDbSymbolTableRecord
100
AcDbTextStyleTableRecord
  2
Standard
 70
     0
 40
0.0
 41
1.0
 50
0.0
 71
     0
 42
0.2
  3
txt
  4

  0
ENDTAB
  0
TABLE
  2
VIEW
  5
6
330
0
100
AcDbSymbolTable
 70
     0
  0
ENDTAB
  0
TABLE
  2
UCS
  5
7
330
0
100
AcDbSymbolTable
 70
     0
  0
ENDTAB
  0
TABLE
  2
APPID
  5
9
330
0
100
AcDbSymbolTable
 70
     1
  0
APPID
  5
12
330
9
100
AcDbSymbolTableRecord
100
AcDbRegAppTableRecord
  2
ACAD
 70
     0
  0
ENDTAB
  0
TABLE
  2
DIMSTYLE
  5
A
330
0
100
AcDbSymbolTable
 70
     1
100
AcDbDimStyleTable
  0
DIMSTYLE
105
27
330
A
100
AcDbSymbolTableRecord
100
AcDbDimStyleTableRecord
  2
Standard
 70
     0
178
     0
340
11
  0
ENDTAB
  0
TABLE
  2
BLOCK_RECORD
  5
1
330
0
100
AcDbSymbolTable
 70
     1
  0
BLOCK_RECORD
  5
1F
330
1
100
AcDbSymbolTableRecord
100
AcDbBlockTableRecord
  2
*Model_Space
340
22
 70
     0
280
     1
281
     0
  0
BLOCK_RECORD
  5
1B
330
1
100
AcDbSymbolTableRecord
100
AcDbBlockTableRecord
  2
*Paper_Space
340
1E
 70
     0
280
     1
281
     0
  0
BLOCK_RECORD
  5
23
330
1
100
AcDbSymbolTableRecord
100
AcDbBlockTableRecord
  2
*Paper_Space0
340
26
 70
     0
280
     1
281
     0
  0
ENDTAB
  0
ENDSEC
  0
SECTION
  2
BLOCKS
  0
BLOCK
  5
20
330
1F
100
AcDbEntity
  8
0
100
AcDbBlockBegin
  2
*Model_Space
 70
     0
 10
0.0
 20
0.0
 30
0.0
  3
*Model_Space
  1

  0
ENDBLK
  5
21
330
1F
100
AcDbEntity
  8
0
100
AcDbBlockEnd
  0
BLOCK
  5
1C
330
1B
100
AcDbEntity
 67
     1
  8
0
100
AcDbBlockBegin
  2
*Paper_Space
 70
     0
 10
0.0
 20
0.0
 30
0.0
  3
*Paper_Space
  1

  0
ENDBLK
  5
1D
330
1B
100
AcDbEntity
 67
     1
  8
0
100
AcDbBlockEnd
  0
BLOCK
  5
24
330
23
100
AcDbEntity
  8
0
100
AcDbBlockBegin
  2
*Paper_Space0
 70
     0
 10
0.0
 20
0.0
 30
0.0
  3
*Paper_Space0
  1

  0
ENDBLK
  5
25
330
23
100
AcDbEntity
  8
0
100
AcDbBlockEnd
  0
ENDSEC
  0
SECTION
  2
ENTITIES
  0
LINE
  5
70
330
1F
100
AcDbEntity
  8
0
100
AcDbLine
 10
-694.2955587968034
 20
-407.7901859681581
 30
0.0
 11
-695.0500859597817
 21
-410.3874361358306
 31
0.0
  0
LINE
  5
71
330
1F
100
AcDbEntity
  8
0
100
AcDbLine
 10
-707.2935467243691
 20
-382.3575903947176
 30
0.0
 11
-704.905887435301
 21
-383.1708030037045
 31
0.0
  0
LINE
  5
72
330
1F
100
AcDbEntity
  8
0
100
AcDbLine
 10
-666.1667861609887
 20
-382.7801256059852
 30
0.0
 11
-663.5041436391914
 21
-383.4809975040399
 31
0.0
  0
LINE
  5
73
330
1F
100
AcDbEntity
  8
0
100
AcDbLine
 10
-709.8153441757437
 20
-381.8696628293253
 30
0.0
 11
-707.2935467243691
 21
-382.3575903947176
 31
0.0
  0
LINE
  5
74
330
1F
100
AcDbEntity
  8
0
100
AcDbLine
 10
-672.1493481998885
 20
-382.404538751525
 30
0.0
 11
-666.1667861609887
 21
-382.7801256059852
 31
0.0
  0
LINE
  5
75
330
1F
100
AcDbEntity
  8
0
100
AcDbLine
 10
-700.5958606076686
 20
-385.7387104483727
 30
0.0
 11
-698.799247596267
 21
-387.4246594758708
 31
0.0
  0
LINE
  5
76
330
1F
100
AcDbEntity
  8
0
100
AcDbLine
 10
-707.5484092327529
 20
-421.7975635670849
 30
0.0
 11
-709.9796634245705
 21
-422.2527949554149
 31
0.0
  0
LINE
  5
77
330
1F
100
AcDbEntity
  8
0
100
AcDbLine
 10
-695.0500859597817
 20
-410.3874361358306
 30
0.0
 11
-696.1064239879503
 21
-412.8270739627926
 31
0.0
  0
LINE
  5
78
330
1F
100
AcDbEntity
  8
0
100
AcDbLine
 10
-717.7563233843284
 20
-421.7338479399889
 30
0.0
 11
-720.1641033977428
 21
-420.8954844255692
 31
0.0
  0
LINE
  5
79
330
1F
100
AcDbEntity
  8
0
100
AcDbLine
 10
-730.9756392797007
 20
-397.9486366723836
 30
0.0
 11
-729.9897237867434
 21
-393.8498774503846
 31
0.0
  0
LINE
  5
7A
330
1F
100
AcDbEntity
  8
0
100
AcDbLine
 10
-728.3465312984804
 20
-390.2826406965282
 30
0.0
 11
-726.0460618149124
 21
-387.2469264108139
 31
0.0
  0
LINE
  5
7B
330
1F
100
AcDbEntity
  8
0
100
AcDbLine
 10
-712.4712797894263
 20
-381.7070203075277
 30
0.0
 11
-709.8153441757437
 21
-381.8696628293253
 31
0.0
  0
LINE
  5
7C
330
1F
100
AcDbEntity
  8
0
100
AcDbLine
 10
-704.905887435301
 20
-383.1708030037045
 30
0.0
 11
-702.6523663085404
 21
-384.3093006562868
 31
0.0
  0
LINE
  5
7D
330
1F
100
AcDbEntity
  8
0
100
AcDbLine
 10
-695.9856996418738
 20
-391.5661752371051
 30
0.0
 11
-694.9821785151136
 21
-393.9714401599754
 31
0.0
  0
LINE
  5
7E
330
1F
100
AcDbEntity
  8
0
100
AcDbLine
 10
-694.2653777102847
 20
-396.5326406965282
 30
0.0
 11
-693.8352972273873
 21
-399.2497768467628
 31
0.0
  0
LINE
  5
7F
330
1F
100
AcDbEntity
  8
0
100
AcDbLine
 10
-731.3042777773535
 20
-402.578918362524
 30
0.0
 11
-730.9756392797007
 21
-397.9486366723836
 31
0.0
  0
LINE
  5
80
330
1F
100
AcDbEntity
  8
0
100
AcDbLine
 10
-693.6919370664212
 20
-402.1228486106799
 30
0.0
 11
-693.8428424990171
 21
-405.0353234597745
 31
0.0
  0
LINE
  5
81
330
1F
100
AcDbEntity
  8
0
100
AcDbLine
 10
-720.0232583273199
 20
-383.0919968333491
 30
0.0
 11
-716.4384159396607
 21
-382.0532644389832
 31
0.0
  0
LINE
  5
82
330
1F
100
AcDbEntity
  8
0
100
AcDbLine
 10
-666.8643046049857
 20
-387.3944783893521
 30
0.0
 11
-671.7201060805056
 21
-387.0457191673533
 31
0.0
  0
LINE
  5
83
330
1F
100
AcDbEntity
  8
0
100
AcDbLine
 10
-693.8428424990171
 20
-405.0353234597745
 30
0.0
 11
-694.2955587968034
 21
-407.7901859681581
 31
0.0
  0
LINE
  5
84
330
1F
100
AcDbEntity
  8
0
100
AcDbLine
 10
-700.8599451147111
 20
-418.6193274839193
 30
0.0
 11
-702.9474702656161
 21
-419.976638013765
 31
0.0
  0
LINE
  5
85
330
1F
100
AcDbEntity
  8
0
100
AcDbLine
 10
-702.9474702656161
 20
-419.976638013765
 30
0.0
 11
-705.2043448464344
 21
-421.0388445865349
 31
0.0
  0
LINE
  5
86
330
1F
100
AcDbEntity
  8
0
100
AcDbLine
 10
-697.2625272743353
 20
-389.3671477387817
 30
0.0
 11
-695.9856996418738
 21
-391.5661752371051
 31
0.0
  0
LINE
  5
87
330
1F
100
AcDbEntity
  8
0
100
AcDbLine
 10
-705.2043448464344
 20
-421.0388445865349
 30
0.0
 11
-707.5484092327529
 21
-421.7975635670849
 31
0.0
  0
LINE
  5
88
330
1F
100
AcDbEntity
  8
0
100
AcDbLine
 10
-694.9821785151136
 20
-393.9714401599754
 30
0.0
 11
-694.2653777102847
 21
-396.5326406965282
 31
0.0
  0
LINE
  5
89
330
1F
100
AcDbEntity
  8
0
100
AcDbLine
 10
-715.2009913923766
 20
-422.2368660486407
 30
0.0
 11
-717.7563233843284
 21
-421.7338479399889
 31
0.0
  0
LINE
  5
8A
330
1F
100
AcDbEntity
  8
0
100
AcDbLine
 10
-698.799247596267
 20
-387.4246594758708
 30
0.0
 11
-697.2625272743353
 21
-389.3671477387817
 31
0.0
  0
LINE
  5
8B
330
1F
100
AcDbEntity
  8
0
100
AcDbLine
 10
-697.4394219758777
 20
-415.0445454584331
 30
0.0
 11
-699.0239290181314
 21
-416.9752966321419
 31
0.0
  0
LINE
  5
8C
330
1F
100
AcDbEntity
  8
0
100
AcDbLine
 10
-720.1641033977428
 20
-420.8954844255692
 30
0.0
 11
-722.4243314326181
 21
-419.7217755053816
 31
0.0
  0
LINE
  5
8D
330
1F
100
AcDbEntity
  8
0
100
AcDbLine
 10
-722.4243314326181
 20
-419.7217755053816
 30
0.0
 11
-724.4783220429474
 21
-418.2579928092044
 31
0.0
  0
LINE
  5
8E
330
1F
100
AcDbEntity
  8
0
100
AcDbLine
 10
-724.4783220429474
 20
-418.2579928092044
 30
0.0
 11
-726.267389782719
 21
-416.5494079668166
 31
0.0
  0
LINE
  5
8F
330
1F
100
AcDbEntity
  8
0
100
AcDbLine
 10
-705.4290262682995
 20
-388.1590659145027
 30
0.0
 11
-708.7455923313441
 21
-386.6801926750662
 31
0.0
  0
LINE
  5
90
330
1F
100
AcDbEntity
  8
0
100
AcDbLine
 10
-753.2761087632691
 20
-421.7338479399889
 30
0.0
 11
-753.2761087632691
 21
-387.0457191673533
 31
0.0
  0
LINE
  5
91
330
1F
100
AcDbEntity
  8
0
100
AcDbLine
 10
-753.2761087632691
 20
-387.0457191673533
 30
0.0
 11
-766.2338552421421
 21
-387.0457191673533
 31
0.0
  0
LINE
  5
92
330
1F
100
AcDbEntity
  8
0
100
AcDbLine
 10
-726.0460618149124
 20
-387.2469264108139
 30
0.0
 11
-723.2258069524037
 21
-384.8232174906261
 31
0.0
  0
LINE
  5
93
330
1F
100
AcDbEntity
  8
0
100
AcDbLine
 10
-699.2947204332893
 20
-405.675833184791
 30
0.0
 11
-699.0574635587086
 21
-402.0960209782182
 31
0.0
  0
LINE
  5
94
330
1F
100
AcDbEntity
  8
0
100
AcDbLine
 10
-696.1064239879503
 20
-412.8270739627926
 30
0.0
 11
-697.4394219758777
 21
-415.0445454584331
 31
0.0
  0
LINE
  5
95
330
1F
100
AcDbEntity
  8
0
100
AcDbLine
 10
-702.6523663085404
 20
-384.3093006562868
 30
0.0
 11
-700.5958606076686
 21
-385.7387104483727
 31
0.0
  0
LINE
  5
96
330
1F
100
AcDbEntity
  8
0
100
AcDbLine
 10
-723.2258069524037
 20
-384.8232174906261
 30
0.0
 11
-720.0232583273199
 21
-383.0919968333491
 31
0.0
  0
LINE
  5
97
330
1F
100
AcDbEntity
  8
0
100
AcDbLine
 10
-729.9897237867434
 20
-393.8498774503846
 30
0.0
 11
-728.3465312984804
 21
-390.2826406965282
 31
0.0
  0
LINE
  5
98
330
1F
100
AcDbEntity
  8
0
100
AcDbLine
 10
-699.0239290181314
 20
-416.9752966321419
 30
0.0
 11
-700.8599451147111
 21
-418.6193274839193
 31
0.0
  0
LINE
  5
99
330
1F
100
AcDbEntity
  8
0
100
AcDbLine
 10
-693.8352972273873
 20
-399.2497768467628
 30
0.0
 11
-693.6919370664212
 21
-402.1228486106799
 31
0.0
  0
LINE
  5
9A
330
1F
100
AcDbEntity
  8
0
100
AcDbLine
 10
-712.4981074218873
 20
-422.4045387515249
 30
0.0
 11
-715.2009913923766
 21
-422.2368660486407
 31
0.0
  0
LINE
  5
9B
330
1F
100
AcDbEntity
  8
0
100
AcDbLine
 10
-716.4384159396607
 20
-382.0532644389832
 30
0.0
 11
-712.4712797894263
 21
-381.7070203075277
 31
0.0
  0
LINE
  5
9C
330
1F
100
AcDbEntity
  8
0
100
AcDbLine
 10
-709.9796634245705
 20
-422.2527949554149
 30
0.0
 11
-712.4981074218873
 21
-422.4045387515249
 31
0.0
  0
LINE
  5
9D
330
1F
100
AcDbEntity
  8
0
100
AcDbLine
 10
-726.267389782719
 20
-416.5494079668166
 30
0.0
 11
-727.7915346519344
 21
-414.5960209782182
 31
0.0
  0
LINE
  5
9E
330
1F
100
AcDbEntity
  8
0
100
AcDbLine
 10
-727.7915346519344
 20
-414.5960209782182
 30
0.0
 11
-729.0507566505928
 21
-412.3978318434096
 31
0.0
  0
LINE
  5
9F
330
1F
100
AcDbEntity
  8
0
100
AcDbLine
 10
-729.0507566505928
 20
-412.3978318434096
 30
0.0
 11
-730.7408974956631
 21
-407.6225132652739
 31
0.0
  0
LINE
  5
A0
330
1F
100
AcDbEntity
  8
0
100
AcDbLine
 10
-730.7408974956631
 20
-407.6225132652739
 30
0.0
 11
-731.3042777773535
 21
-402.578918362524
 31
0.0
  0
LINE
  5
A1
330
1F
100
AcDbEntity
  8
0
100
AcDbLine
 10
-725.9387512850661
 20
-402.6594012599085
 30
0.0
 11
-725.6998176834564
 21
-406.0254307703042
 31
0.0
  0
LINE
  5
A2
330
1F
100
AcDbEntity
  8
0
100
AcDbLine
 10
-725.6998176834564
 20
-406.0254307703042
 30
0.0
 11
-724.9830168786276
 21
-409.0141966992109
 31
0.0
  0
LINE
  5
A3
330
1F
100
AcDbEntity
  8
0
100
AcDbLine
 10
-724.9830168786276
 20
-409.0141966992109
 30
0.0
 11
-723.7883488705796
 21
-411.6256990466287
 31
0.0
  0
LINE
  5
A4
330
1F
100
AcDbEntity
  8
0
100
AcDbLine
 10
-723.7883488705796
 20
-411.6256990466287
 30
0.0
 11
-722.1158136593123
 21
-413.8599378125575
 31
0.0
  0
LINE
  5
A5
330
1F
100
AcDbEntity
  8
0
100
AcDbLine
 10
-722.1158136593123
 20
-413.8599378125575
 30
0.0
 11
-720.0827821368438
 21
-415.6498439158443
 31
0.0
  0
LINE
  5
A6
330
1F
100
AcDbEntity
  8
0
100
AcDbLine
 10
-720.0827821368438
 20
-415.6498439158443
 30
0.0
 11
-717.8066251951942
 21
-416.9283482753346
 31
0.0
  0
LINE
  5
A7
330
1F
100
AcDbEntity
  8
0
100
AcDbLine
 10
-717.8066251951942
 20
-416.9283482753346
 30
0.0
 11
-715.2873428343622
 21
-417.6954508910285
 31
0.0
  0
LINE
  5
A8
330
1F
100
AcDbEntity
  8
0
100
AcDbLine
 10
-715.2873428343622
 20
-417.6954508910285
 30
0.0
 11
-712.524935054349
 21
-417.9511517629267
 31
0.0
  0
LINE
  5
A9
330
1F
100
AcDbEntity
  8
0
100
AcDbLine
 10
-712.524935054349
 20
-417.9511517629267
 30
0.0
 11
-709.7172556445568
 21
-417.6929358004852
 31
0.0
  0
LINE
  5
AA
330
1F
100
AcDbEntity
  8
0
100
AcDbLine
 10
-709.7172556445568
 20
-417.6929358004852
 30
0.0
 11
-707.1694689242349
 21
-416.9182879131614
 31
0.0
  0
LINE
  5
AB
330
1F
100
AcDbEntity
  8
0
100
AcDbLine
 10
-707.1694689242349
 20
-416.9182879131614
 30
0.0
 11
-704.8815748933833
 21
-415.6272081009546
 31
0.0
  0
LINE
  5
AC
330
1F
100
AcDbEntity
  8
0
100
AcDbLine
 10
-704.8815748933833
 20
-415.6272081009546
 30
0.0
 11
-702.8535735520014
 21
-413.8196963638656
 31
0.0
  0
LINE
  5
AD
330
1F
100
AcDbEntity
  8
0
100
AcDbLine
 10
-702.8535735520014
 20
-413.8196963638656
 30
0.0
 11
-701.1927754299354
 21
-411.537670877615
 31
0.0
  0
LINE
  5
AE
330
1F
100
AcDbEntity
  8
0
100
AcDbLine
 10
-701.1927754299354
 20
-411.537670877615
 30
0.0
 11
-700.0064910570316
 21
-408.8230498179233
 31
0.0
  0
LINE
  5
AF
330
1F
100
AcDbEntity
  8
0
100
AcDbLine
 10
-700.0064910570316
 20
-408.8230498179233
 30
0.0
 11
-699.2947204332893
 21
-405.675833184791
 31
0.0
  0
LINE
  5
B0
330
1F
100
AcDbEntity
  8
0
100
AcDbLine
 10
-699.0574635587086
 20
-402.0960209782182
 30
0.0
 11
-699.4632314996876
 21
-397.5990390868703
 31
0.0
  0
LINE
  5
B1
330
1F
100
AcDbEntity
  8
0
100
AcDbLine
 10
-699.4632314996876
 20
-397.5990390868703
 30
0.0
 11
-700.6805353226252
 21
-393.7123858340199
 31
0.0
  0
LINE
  5
B2
330
1F
100
AcDbEntity
  8
0
100
AcDbLine
 10
-700.6805353226252
 20
-393.7123858340199
 30
0.0
 11
-702.6791939410022
 21
-390.5333113873398
 31
0.0
  0
LINE
  5
B3
330
1F
100
AcDbEntity
  8
0
100
AcDbLine
 10
-702.6791939410022
 20
-390.5333113873398
 30
0.0
 11
-705.4290262682995
 21
-388.1590659145027
 31
0.0
  0
LINE
  5
B4
330
1F
100
AcDbEntity
  8
0
100
AcDbLine
 10
-708.7455923313441
 20
-386.6801926750662
 30
0.0
 11
-712.4444521569645
 21
-386.1872349285873
 31
0.0
  0
LINE
  5
B5
330
1F
100
AcDbEntity
  8
0
100
AcDbLine
 10
-712.4444521569645
 20
-386.1872349285873
 30
0.0
 11
-715.1112864963341
 21
-386.424491803168
 31
0.0
  0
LINE
  5
B6
330
1F
100
AcDbEntity
  8
0
100
AcDbLine
 10
-715.1112864963341
 20
-386.424491803168
 30
0.0
 11
-717.585297227387
 21
-387.1362624269106
 31
0.0
  0
LINE
  5
B7
330
1F
100
AcDbEntity
  8
0
100
AcDbLine
 10
-717.585297227387
 20
-387.1362624269106
 30
0.0
 11
-719.8664843501238
 21
-388.3225467998144
 31
0.0
  0
LINE
  5
B8
330
1F
100
AcDbEntity
  8
0
100
AcDbLine
 10
-719.8664843501238
 20
-388.3225467998144
 30
0.0
 11
-721.9548478645432
 21
-389.9833449218804
 31
0.0
  0
LINE
  5
B9
330
1F
100
AcDbEntity
  8
0
100
AcDbLine
 10
-721.9548478645432
 20
-389.9833449218804
 30
0.0
 11
-723.6978056110219
 21
-392.1991396904921
 31
0.0
  0
LINE
  5
BA
330
1F
100
AcDbEntity
  8
0
100
AcDbLine
 10
-723.6978056110219
 20
-392.1991396904921
 30
0.0
 11
-724.9427754299358
 21
-395.050414003034
 31
0.0
  0
LINE
  5
BB
330
1F
100
AcDbEntity
  8
0
100
AcDbLine
 10
-724.9427754299358
 20
-395.050414003034
 30
0.0
 11
-725.6897573212841
 21
-398.5371678595062
 31
0.0
  0
LINE
  5
BC
330
1F
100
AcDbEntity
  8
0
100
AcDbLine
 10
-725.6897573212841
 20
-398.5371678595062
 30
0.0
 11
-725.9387512850661
 21
-402.6594012599085
 31
0.0
  0
LINE
  5
BD
330
1F
100
AcDbEntity
  8
0
100
AcDbLine
 10
2639.213504072529
 20
-305.594720425627
 30
0.0
 11
3168.481678631934
 21
-305.5947204256187
 31
0.0
  0
LINE
  5
BE
330
1F
100
AcDbEntity
  8
0
100
AcDbLine
 10
2639.213504072523
 20
380.063205618698
 30
0.0
 11
2639.211810223292
 21
373.04128718753
 31
0.0
  0
LINE
  5
BF
330
1F
100
AcDbEntity
  8
0
100
AcDbLine
 10
3168.481678631932
 20
380.0632056187081
 30
0.0
 11
3168.483372481159
 21
373.0412871875429
 31
0.0
  0
LINE
  5
C0
330
1F
100
AcDbEntity
  8
0
100
AcDbLine
 10
906.8005096245162
 20
-401.5527614208742
 30
0.0
 11
909.131160194603
 21
-403.7056789259047
 31
0.0
  0
LINE
  5
C1
330
1F
100
AcDbEntity
  8
0
100
AcDbLine
 10
907.601985144301
 20
-386.6030632317397
 30
0.0
 11
908.7589267942005
 21
-389.1416279534029
 31
0.0
  0
LINE
  5
C2
330
1F
100
AcDbEntity
  8
0
100
AcDbLine
 10
903.3363915829326
 20
-382.9276775845227
 30
0.0
 11
905.7642923206924
 21
-384.4434388185938
 31
0.0
  0
LINE
  5
C3
330
1F
100
AcDbEntity
  8
0
100
AcDbLine
 10
881.3511467807868
 20
-421.063157128453
 30
0.0
 11
881.3511467807868
 21
-381.7338479399891
 31
0.0
  0
LINE
  5
C4
330
1F
100
AcDbEntity
  8
0
100
AcDbLine
 10
911.0493359155961
 20
-409.6614133323431
 30
0.0
 11
910.7575854125773
 21
-412.3274093081982
 31
0.0
  0
LINE
  5
C5
330
1F
100
AcDbEntity
  8
0
100
AcDbLine
 10
906.9983634139188
 20
-418.4608767796939
 30
0.0
 11
905.0634204226378
 21
-419.590990797132
 31
0.0
  0
LINE
  5
C6
330
1F
100
AcDbEntity
  8
0
100
AcDbLine
 10
910.7575854125773
 20
-412.3274093081982
 30
0.0
 11
909.8823339035227
 21
-414.7989049487081
 31
0.0
  0
LINE
  5
C7
330
1F
100
AcDbEntity
  8
0
100
AcDbLine
 10
909.8823339035227
 20
-414.7989049487081
 30
0.0
 11
908.5778402750858
 21
-416.9015206428728
 31
0.0
  0
LINE
  5
C8
330
1F
100
AcDbEntity
  8
0
100
AcDbLine
 10
3181.617521249599
 20
-298.5728019944564
 30
0.0
 11
3181.617521249596
 21
373.0412871875343
 31
0.0
  0
LINE
  5
C9
330
1F
100
AcDbEntity
  8
0
100
AcDbLine
 10
2639.213504072529
 20
-305.594720425627
 30
0.0
 11
2639.211810223305
 21
-298.5728019944651
 31
0.0
  0
LINE
  5
CA
330
1F
100
AcDbEntity
  8
0
100
AcDbLine
 10
2639.211810223305
 20
-298.5728019944651
 30
0.0
 11
2626.077661454864
 21
-298.572801994464
 31
0.0
  0
LINE
  5
CB
330
1F
100
AcDbEntity
  8
0
100
AcDbLine
 10
2626.077661454857
 20
373.0412871875314
 30
0.0
 11
2626.077661454864
 21
-298.572801994464
 31
0.0
  0
LINE
  5
CC
330
1F
100
AcDbEntity
  8
0
100
AcDbLine
 10
2639.211810223292
 20
373.04128718753
 30
0.0
 11
2626.077661454857
 21
373.0412871875314
 31
0.0
  0
LINE
  5
CD
330
1F
100
AcDbEntity
  8
0
100
AcDbLine
 10
3168.481678631932
 20
380.0632056187081
 30
0.0
 11
2639.213504072523
 21
380.063205618698
 31
0.0
  0
LINE
  5
CE
330
1F
100
AcDbEntity
  8
0
100
AcDbLine
 10
3168.483372481159
 20
373.0412871875429
 30
0.0
 11
3181.617521249596
 21
373.0412871875343
 31
0.0
  0
LINE
  5
CF
330
1F
100
AcDbEntity
  8
0
100
AcDbLine
 10
3168.483372481159
 20
-298.5728019944553
 30
0.0
 11
3181.617521249599
 21
-298.5728019944564
 31
0.0
  0
LINE
  5
D0
330
1F
100
AcDbEntity
  8
0
100
AcDbLine
 10
3168.481678631934
 20
-305.5947204256187
 30
0.0
 11
3168.483372481159
 21
-298.5728019944553
 31
0.0
  0
LINE
  5
D1
330
1F
100
AcDbEntity
  8
0
100
AcDbLine
 10
929.5604023139858
 20
-393.3770404282519
 30
0.0
 11
925.2411534876953
 21
-404.9129223866692
 31
0.0
  0
LINE
  5
D2
330
1F
100
AcDbEntity
  8
0
100
AcDbLine
 10
903.6449093562399
 20
-400.1376038085336
 30
0.0
 11
906.8005096245162
 21
-401.5527614208742
 31
0.0
  0
LINE
  5
D3
330
1F
100
AcDbEntity
  8
0
100
AcDbLine
 10
909.131160194603
 20
-403.7056789259047
 30
0.0
 11
910.5697919853473
 21
-406.4555112532013
 31
0.0
  0
LINE
  5
D4
330
1F
100
AcDbEntity
  8
0
100
AcDbLine
 10
1009.614057578908
 20
-397.6694616220814
 30
0.0
 11
1026.83739761915
 21
-421.063157128453
 31
0.0
  0
LINE
  5
D5
330
1F
100
AcDbEntity
  8
0
100
AcDbLine
 10
909.1445740108338
 20
-391.7942101130271
 30
0.0
 11
908.8025216969501
 21
-394.2422315751334
 31
0.0
  0
LINE
  5
D6
330
1F
100
AcDbEntity
  8
0
100
AcDbLine
 10
905.7642923206924
 20
-384.4434388185938
 30
0.0
 11
907.601985144301
 21
-386.6030632317397
 31
0.0
  0
LINE
  5
D7
330
1F
100
AcDbEntity
  8
0
100
AcDbLine
 10
905.6569817908469
 20
-409.6614133323431
 30
0.0
 11
905.3752916500022
 21
-407.6057459949857
 31
0.0
  0
LINE
  5
D8
330
1F
100
AcDbEntity
  8
0
100
AcDbLine
 10
982.9205632797803
 20
-407.2737540432755
 30
0.0
 11
988.1251239772993
 21
-408.5883080338855
 31
0.0
  0
LINE
  5
D9
330
1F
100
AcDbEntity
  8
0
100
AcDbLine
 10
979.9921595239123
 20
-419.8399847609147
 30
0.0
 11
977.511441884744
 21
-420.8921309715115
 31
0.0
  0
LINE
  5
DA
330
1F
100
AcDbEntity
  8
0
100
AcDbLine
 10
974.7943057345094
 20
-421.5234186978696
 30
0.0
 11
971.8407510732078
 21
-421.7338479399889
 31
0.0
  0
LINE
  5
DB
330
1F
100
AcDbEntity
  8
0
100
AcDbLine
 10
902.8937356473194
 20
-415.1610779869374
 30
0.0
 11
903.9936685782384
 21
-414.2388781210755
 31
0.0
  0
LINE
  5
DC
330
1F
100
AcDbEntity
  8
0
100
AcDbLine
 10
985.8347148559037
 20
-414.2388781210755
 30
0.0
 11
984.1990676392707
 21
-416.4932376113505
 31
0.0
  0
LINE
  5
DD
330
1F
100
AcDbEntity
  8
0
100
AcDbLine
 10
977.511441884744
 20
-420.8921309715115
 30
0.0
 11
974.7943057345094
 21
-421.5234186978696
 31
0.0
  0
LINE
  5
DE
330
1F
100
AcDbEntity
  8
0
100
AcDbLine
 10
988.1251239772993
 20
-408.5883080338855
 30
0.0
 11
987.1434003019135
 21
-411.6039015952539
 31
0.0
  0
LINE
  5
DF
330
1F
100
AcDbEntity
  8
0
100
AcDbLine
 10
987.1434003019135
 20
-411.6039015952539
 30
0.0
 11
985.8347148559037
 21
-414.2388781210755
 31
0.0
  0
LINE
  5
E0
330
1F
100
AcDbEntity
  8
0
100
AcDbLine
 10
984.1990676392707
 20
-416.4932376113505
 30
0.0
 11
982.2364586520142
 21
-418.3669800660788
 31
0.0
  0
LINE
  5
E1
330
1F
100
AcDbEntity
  8
0
100
AcDbLine
 10
982.2364586520142
 20
-418.3669800660788
 30
0.0
 11
979.9921595239123
 21
-419.8399847609147
 31
0.0
  0
LINE
  5
E2
330
1F
100
AcDbEntity
  8
0
100
AcDbLine
 10
971.8407510732078
 20
-421.7338479399889
 30
0.0
 11
968.81006696858
 21
-421.5720437817058
 31
0.0
  0
LINE
  5
E3
330
1F
100
AcDbEntity
  8
0
100
AcDbLine
 10
968.81006696858
 20
-421.5720437817058
 30
0.0
 11
966.0761635480569
 21
-421.0866313068567
 31
0.0
  0
LINE
  5
E4
330
1F
100
AcDbEntity
  8
0
100
AcDbLine
 10
966.0761635480569
 20
-421.0866313068567
 30
0.0
 11
963.6390408116389
 21
-420.2776105154417
 31
0.0
  0
LINE
  5
E5
330
1F
100
AcDbEntity
  8
0
100
AcDbLine
 10
963.6390408116389
 20
-420.2776105154417
 30
0.0
 11
961.4986987593248
 21
-419.1449814074604
 31
0.0
  0
LINE
  5
E6
330
1F
100
AcDbEntity
  8
0
100
AcDbLine
 10
961.4986987593248
 20
-419.1449814074604
 30
0.0
 11
959.6257946681103
 21
-417.7055112532016
 31
0.0
  0
LINE
  5
E7
330
1F
100
AcDbEntity
  8
0
100
AcDbLine
 10
959.6257946681103
 20
-417.7055112532016
 30
0.0
 11
957.9909858149923
 21
-415.9759673229535
 31
0.0
  0
LINE
  5
E8
330
1F
100
AcDbEntity
  8
0
100
AcDbLine
 10
957.9909858149923
 20
-415.9759673229535
 30
0.0
 11
956.5942721999681
 21
-413.9563496167162
 31
0.0
  0
LINE
  5
E9
330
1F
100
AcDbEntity
  8
0
100
AcDbLine
 10
956.5942721999681
 20
-413.9563496167162
 30
0.0
 11
955.4356538230405
 21
-411.6466581344895
 31
0.0
  0
LINE
  5
EA
330
1F
100
AcDbEntity
  8
0
100
AcDbLine
 10
955.4356538230405
 20
-411.6466581344895
 30
0.0
 11
953.8762976862198
 21
-406.5561148749322
 31
0.0
  0
LINE
  5
EB
330
1F
100
AcDbEntity
  8
0
100
AcDbLine
 10
953.8762976862198
 20
-406.5561148749322
 30
0.0
 11
953.3565123072791
 21
-401.1033985771452
 31
0.0
  0
LINE
  5
EC
330
1F
100
AcDbEntity
  8
0
100
AcDbLine
 10
953.3565123072791
 20
-401.1033985771452
 30
0.0
 11
953.5032259223021
 21
-398.1297231914979
 31
0.0
  0
LINE
  5
ED
330
1F
100
AcDbEntity
  8
0
100
AcDbLine
 10
953.5032259223021
 20
-398.1297231914979
 30
0.0
 11
953.9433667673727
 21
-395.3522248682251
 31
0.0
  0
LINE
  5
EE
330
1F
100
AcDbEntity
  8
0
100
AcDbLine
 10
953.9433667673727
 20
-395.3522248682251
 30
0.0
 11
954.6769348424901
 21
-392.7709036073264
 31
0.0
  0
LINE
  5
EF
330
1F
100
AcDbEntity
  8
0
100
AcDbLine
 10
954.6769348424901
 20
-392.7709036073264
 30
0.0
 11
955.7039301476544
 21
-390.3857594088017
 31
0.0
  0
LINE
  5
F0
330
1F
100
AcDbEntity
  8
0
100
AcDbLine
 10
955.7039301476544
 20
-390.3857594088017
 30
0.0
 11
957.0017168679767
 21
-388.2361953578296
 31
0.0
  0
LINE
  5
F1
330
1F
100
AcDbEntity
  8
0
100
AcDbLine
 10
957.0017168679767
 20
-388.2361953578296
 30
0.0
 11
958.5476591885665
 21
-386.3616145395865
 31
0.0
  0
LINE
  5
F2
330
1F
100
AcDbEntity
  8
0
100
AcDbLine
 10
958.5476591885665
 20
-386.3616145395865
 30
0.0
 11
960.3417571094254
 21
-384.7620169540735
 31
0.0
  0
LINE
  5
F3
330
1F
100
AcDbEntity
  8
0
100
AcDbLine
 10
960.3417571094254
 20
-384.7620169540735
 30
0.0
 11
962.3840106305519
 21
-383.4374026012902
 31
0.0
  0
LINE
  5
F4
330
1F
100
AcDbEntity
  8
0
100
AcDbLine
 10
962.3840106305519
 20
-383.4374026012902
 30
0.0
 11
964.6048355802506
 21
-382.398670206924
 31
0.0
  0
LINE
  5
F5
330
1F
100
AcDbEntity
  8
0
100
AcDbLine
 10
964.6048355802506
 20
-382.398670206924
 30
0.0
 11
966.9346477868229
 21
-381.6567184966622
 31
0.0
  0
LINE
  5
F6
330
1F
100
AcDbEntity
  8
0
100
AcDbLine
 10
966.9346477868229
 20
-381.6567184966622
 30
0.0
 11
969.3734472502704
 21
-381.2115474705054
 31
0.0
  0
LINE
  5
F7
330
1F
100
AcDbEntity
  8
0
100
AcDbLine
 10
969.3734472502704
 20
-381.2115474705054
 30
0.0
 11
971.9212339705923
 21
-381.0631571284531
 31
0.0
  0
LINE
  5
F8
330
1F
100
AcDbEntity
  8
0
100
AcDbLine
 10
971.9212339705923
 20
-381.0631571284531
 30
0.0
 11
974.7549026493313
 21
-381.2509505556832
 31
0.0
  0
LINE
  5
F9
330
1F
100
AcDbEntity
  8
0
100
AcDbLine
 10
974.7549026493313
 20
-381.2509505556832
 30
0.0
 11
977.3538295440327
 21
-381.8143308373732
 31
0.0
  0
LINE
  5
FA
330
1F
100
AcDbEntity
  8
0
100
AcDbLine
 10
977.3538295440327
 20
-381.8143308373732
 30
0.0
 11
979.7180146546973
 21
-382.7532979735234
 31
0.0
  0
LINE
  5
FB
330
1F
100
AcDbEntity
  8
0
100
AcDbLine
 10
979.7180146546973
 20
-382.7532979735234
 30
0.0
 11
981.8474579813231
 21
-384.0678519641339
 31
0.0
  0
LINE
  5
FC
330
1F
100
AcDbEntity
  8
0
100
AcDbLine
 10
981.8474579813231
 20
-384.0678519641339
 30
0.0
 11
983.7069482563069
 21
-385.7227815415985
 31
0.0
  0
LINE
  5
FD
330
1F
100
AcDbEntity
  8
0
100
AcDbLine
 10
983.7069482563069
 20
-385.7227815415985
 30
0.0
 11
985.2612742120409
 21
-387.6828754383124
 31
0.0
  0
LINE
  5
FE
330
1F
100
AcDbEntity
  8
0
100
AcDbLine
 10
985.2612742120409
 20
-387.6828754383124
 30
0.0
 11
986.510435848527
 21
-389.9481336542747
 31
0.0
  0
LINE
  5
FF
330
1F
100
AcDbEntity
  8
0
100
AcDbLine
 10
986.510435848527
 20
-389.9481336542747
 30
0.0
 11
987.4544331657634
 21
-392.5185561894859
 31
0.0
  0
LINE
  5
100
330
1F
100
AcDbEntity
  8
0
100
AcDbLine
 10
987.4544331657634
 20
-392.5185561894859
 30
0.0
 11
982.330355365629
 21
-393.7257996502504
 31
0.0
  0
LINE
  5
101
330
1F
100
AcDbEntity
  8
0
100
AcDbLine
 10
982.330355365629
 20
-393.7257996502504
 30
0.0
 11
980.6536283367894
 21
-390.0168794624569
 31
0.0
  0
LINE
  5
102
330
1F
100
AcDbEntity
  8
0
100
AcDbLine
 10
980.6536283367894
 20
-390.0168794624569
 30
0.0
 11
979.58387649239
 21
-388.6000451230878
 31
0.0
  0
LINE
  5
103
330
1F
100
AcDbEntity
  8
0
100
AcDbLine
 10
979.58387649239
 20
-388.6000451230878
 30
0.0
 11
978.3598657613369
 21
-387.4749612867359
 31
0.0
  0
LINE
  5
104
330
1F
100
AcDbEntity
  8
0
100
AcDbLine
 10
978.3598657613369
 20
-387.4749612867359
 30
0.0
 11
975.4222400068094
 21
-386.0061484094726
 31
0.0
  0
LINE
  5
105
330
1F
100
AcDbEntity
  8
0
100
AcDbLine
 10
975.4222400068094
 20
-386.0061484094726
 30
0.0
 11
971.8139234407467
 21
-385.5165441170513
 31
0.0
  0
LINE
  5
106
330
1F
100
AcDbEntity
  8
0
100
AcDbLine
 10
971.8139234407467
 20
-385.5165441170513
 30
0.0
 11
967.6522869551661
 21
-386.0598036743954
 31
0.0
  0
LINE
  5
107
330
1F
100
AcDbEntity
  8
0
100
AcDbLine
 10
967.6522869551661
 20
-386.0598036743954
 30
0.0
 11
965.8506437626781
 21
-386.7388781210756
 31
0.0
  0
LINE
  5
108
330
1F
100
AcDbEntity
  8
0
100
AcDbLine
 10
965.8506437626781
 20
-386.7388781210756
 30
0.0
 11
964.2351172703906
 21
-387.6895823464278
 31
0.0
  0
LINE
  5
109
330
1F
100
AcDbEntity
  8
0
100
AcDbLine
 10
964.2351172703906
 20
-387.6895823464278
 30
0.0
 11
961.6428972838054
 21
-390.2348539762065
 31
0.0
  0
LINE
  5
10A
330
1F
100
AcDbEntity
  8
0
100
AcDbLine
 10
961.6428972838054
 20
-390.2348539762065
 30
0.0
 11
959.956109892792
 21
-393.5245924067897
 31
0.0
  0
LINE
  5
10B
330
1F
100
AcDbEntity
  8
0
100
AcDbLine
 10
959.956109892792
 20
-393.5245924067897
 30
0.0
 11
959.0305565728723
 21
-397.2435729567561
 31
0.0
  0
LINE
  5
10C
330
1F
100
AcDbEntity
  8
0
100
AcDbLine
 10
959.0305565728723
 20
-397.2435729567561
 30
0.0
 11
958.7220387995665
 21
-401.0765709446838
 31
0.0
  0
LINE
  5
10D
330
1F
100
AcDbEntity
  8
0
100
AcDbLine
 10
958.7220387995665
 20
-401.0765709446838
 30
0.0
 11
959.0875652918536
 21
-405.7747600794926
 31
0.0
  0
LINE
  5
10E
330
1F
100
AcDbEntity
  8
0
100
AcDbLine
 10
959.0875652918536
 20
-405.7747600794926
 30
0.0
 11
960.1841447687148
 21
-409.8357929433427
 31
0.0
  0
LINE
  5
10F
330
1F
100
AcDbEntity
  8
0
100
AcDbLine
 10
960.1841447687148
 20
-409.8357929433427
 30
0.0
 11
962.0520186788414
 21
-413.1054106495801
 31
0.0
  0
LINE
  5
110
330
1F
100
AcDbEntity
  8
0
100
AcDbLine
 10
962.0520186788414
 20
-413.1054106495801
 30
0.0
 11
963.2902815896398
 21
-414.3855917360992
 31
0.0
  0
LINE
  5
111
330
1F
100
AcDbEntity
  8
0
100
AcDbLine
 10
963.2902815896398
 20
-414.3855917360992
 30
0.0
 11
964.7314284709273
 21
-415.4293543115517
 31
0.0
  0
LINE
  5
112
330
1F
100
AcDbEntity
  8
0
100
AcDbLine
 10
964.7314284709273
 20
-415.4293543115517
 30
0.0
 11
967.9440374581849
 21
-416.8176842914309
 31
0.0
  0
LINE
  5
113
330
1F
100
AcDbEntity
  8
0
100
AcDbLine
 10
967.9440374581849
 20
-416.8176842914309
 30
0.0
 11
971.4115089538248
 21
-417.2804609513908
 31
0.0
  0
LINE
  5
114
330
1F
100
AcDbEntity
  8
0
100
AcDbLine
 10
971.4115089538248
 20
-417.2804609513908
 30
0.0
 11
973.5141246479902
 21
-417.1228486106798
 31
0.0
  0
LINE
  5
115
330
1F
100
AcDbEntity
  8
0
100
AcDbLine
 10
973.5141246479902
 20
-417.1228486106798
 30
0.0
 11
975.4490676392712
 21
-416.6500115885468
 31
0.0
  0
LINE
  5
116
330
1F
100
AcDbEntity
  8
0
100
AcDbLine
 10
975.4490676392712
 20
-416.6500115885468
 30
0.0
 11
977.2163379276676
 21
-415.8619498849921
 31
0.0
  0
LINE
  5
117
330
1F
100
AcDbEntity
  8
0
100
AcDbLine
 10
977.2163379276676
 20
-415.8619498849921
 30
0.0
 11
978.815935513181
 21
-414.7586635000158
 31
0.0
  0
LINE
  5
118
330
1F
100
AcDbEntity
  8
0
100
AcDbLine
 10
978.815935513181
 20
-414.7586635000158
 30
0.0
 11
980.2092956741475
 21
-413.3451826147041
 31
0.0
  0
LINE
  5
119
330
1F
100
AcDbEntity
  8
0
100
AcDbLine
 10
980.2092956741475
 20
-413.3451826147041
 30
0.0
 11
981.3578536889019
 21
-411.6265374101432
 31
0.0
  0
LINE
  5
11A
330
1F
100
AcDbEntity
  8
0
100
AcDbLine
 10
981.3578536889019
 20
-411.6265374101432
 30
0.0
 11
982.2616095574472
 21
-409.6027278863337
 31
0.0
  0
LINE
  5
11B
330
1F
100
AcDbEntity
  8
0
100
AcDbLine
 10
982.2616095574472
 20
-409.6027278863337
 30
0.0
 11
982.9205632797803
 21
-407.2737540432755
 31
0.0
  0
LINE
  5
11C
330
1F
100
AcDbEntity
  8
0
100
AcDbLine
 10
898.9668409457763
 20
-403.0651692008875
 30
0.0
 11
895.6502748827317
 21
-402.9008499520614
 31
0.0
  0
LINE
  5
11D
330
1F
100
AcDbEntity
  8
0
100
AcDbLine
 10
999.5268677734093
 20
-421.063157128453
 30
0.0
 11
994.3223070758903
 21
-421.063157128453
 31
0.0
  0
LINE
  5
11E
330
1F
100
AcDbEntity
  8
0
100
AcDbLine
 10
1019.969523709023
 20
-421.063157128453
 30
0.0
 11
1005.965499564153
 21
-401.1570538420683
 31
0.0
  0
LINE
  5
11F
330
1F
100
AcDbEntity
  8
0
100
AcDbLine
 10
1026.113051542691
 20
-381.7338479399891
 30
0.0
 11
1009.614057578908
 21
-397.6694616220814
 31
0.0
  0
LINE
  5
120
330
1F
100
AcDbEntity
  8
0
100
AcDbLine
 10
-663.5041436391914
 20
-383.4809975040399
 30
0.0
 11
-661.310984685469
 21
-384.6178184295933
 31
0.0
  0
LINE
  5
121
330
1F
100
AcDbEntity
  8
0
100
AcDbLine
 10
899.889040811639
 20
-416.2341832853946
 30
0.0
 11
901.5389402080167
 21
-415.8049411660116
 31
0.0
  0
LINE
  5
122
330
1F
100
AcDbEntity
  8
0
100
AcDbLine
 10
903.768987156374
 20
-394.3025937481716
 30
0.0
 11
904.0204962106994
 21
-392.4112456596403
 31
0.0
  0
LINE
  5
123
330
1F
100
AcDbEntity
  8
0
100
AcDbLine
 10
903.7857544266619
 20
-390.570199381974
 30
0.0
 11
903.0815290745488
 21
-388.963894888346
 31
0.0
  0
LINE
  5
124
330
1F
100
AcDbEntity
  8
0
100
AcDbLine
 10
901.4048020457094
 20
-403.5581269473665
 30
0.0
 11
898.9668409457763
 21
-403.0651692008875
 31
0.0
  0
LINE
  5
125
330
1F
100
AcDbEntity
  8
0
100
AcDbLine
 10
898.0312272636842
 20
-398.1456520982717
 30
0.0
 11
900.0231789739456
 21
-397.8035997843887
 31
0.0
  0
LINE
  5
126
330
1F
100
AcDbEntity
  8
0
100
AcDbLine
 10
999.5268677734093
 20
-381.7338479399891
 30
0.0
 11
999.5268677734093
 21
-401.2375367394525
 31
0.0
  0
LINE
  5
127
330
1F
100
AcDbEntity
  8
0
100
AcDbLine
 10
899.8119113683115
 20
-420.8988378796266
 30
0.0
 11
896.3477933267293
 21
-421.063157128453
 31
0.0
  0
LINE
  5
128
330
1F
100
AcDbEntity
  8
0
100
AcDbLine
 10
886.5557074783051
 20
-398.2596695362331
 30
0.0
 11
895.0600669685803
 21
-398.2596695362331
 31
0.0
  0
LINE
  5
129
330
1F
100
AcDbEntity
  8
0
100
AcDbLine
 10
904.0204962106994
 20
-392.4112456596403
 30
0.0
 11
903.7857544266619
 21
-390.570199381974
 31
0.0
  0
LINE
  5
12A
330
1F
100
AcDbEntity
  8
0
100
AcDbLine
 10
905.4624814555021
 20
-411.4286836207402
 30
0.0
 11
905.6569817908469
 21
-409.6614133323431
 31
0.0
  0
LINE
  5
12B
330
1F
100
AcDbEntity
  8
0
100
AcDbLine
 10
994.3223070758903
 20
-381.7338479399891
 30
0.0
 11
999.5268677734093
 21
-381.7338479399891
 31
0.0
  0
LINE
  5
12C
330
1F
100
AcDbEntity
  8
0
100
AcDbLine
 10
886.5557074783051
 20
-386.3750283558173
 30
0.0
 11
886.5557074783051
 21
-398.2596695362331
 31
0.0
  0
LINE
  5
12D
330
1F
100
AcDbEntity
  8
0
100
AcDbLine
 10
1019.057384205334
 20
-381.7338479399891
 30
0.0
 11
1026.113051542691
 21
-381.7338479399891
 31
0.0
  0
LINE
  5
12E
330
1F
100
AcDbEntity
  8
0
100
AcDbLine
 10
999.5268677734093
 20
-407.4347198380438
 30
0.0
 11
999.5268677734093
 21
-421.063157128453
 31
0.0
  0
LINE
  5
12F
330
1F
100
AcDbEntity
  8
0
100
AcDbLine
 10
903.1854861503374
 20
-404.4568526348244
 30
0.0
 11
901.4048020457094
 21
-403.5581269473665
 31
0.0
  0
LINE
  5
130
330
1F
100
AcDbEntity
  8
0
100
AcDbLine
 10
994.3223070758903
 20
-421.063157128453
 30
0.0
 11
994.3223070758903
 21
-381.7338479399891
 31
0.0
  0
LINE
  5
131
330
1F
100
AcDbEntity
  8
0
100
AcDbLine
 10
-658.7606828746037
 20
-400.4368995831817
 30
0.0
 11
-660.1573964896272
 21
-402.2704005892178
 31
0.0
  0
LINE
  5
132
330
1F
100
AcDbEntity
  8
0
100
AcDbLine
 10
886.5557074783051
 20
-402.9008499520614
 30
0.0
 11
886.5557074783051
 21
-416.4219767126247
 31
0.0
  0
LINE
  5
133
330
1F
100
AcDbEntity
  8
0
100
AcDbLine
 10
-671.6127955506599
 20
-401.1033985771455
 30
0.0
 11
-667.3002536324842
 21
-400.6339150090702
 31
0.0
  0
LINE
  5
134
330
1F
100
AcDbEntity
  8
0
100
AcDbLine
 10
-664.6376111106869
 20
-404.8760343920346
 30
0.0
 11
-667.8435131898283
 21
-405.527442842739
 31
0.0
  0
LINE
  5
135
330
1F
100
AcDbEntity
  8
0
100
AcDbLine
 10
904.8789804494654
 20
-412.9746259413304
 30
0.0
 11
905.4624814555021
 21
-411.4286836207402
 31
0.0
  0
LINE
  5
136
330
1F
100
AcDbEntity
  8
0
100
AcDbLine
 10
900.3987658284059
 20
-386.9249948212765
 30
0.0
 11
898.0312272636842
 21
-386.512519972182
 31
0.0
  0
LINE
  5
137
330
1F
100
AcDbEntity
  8
0
100
AcDbLine
 10
-671.6932784480446
 20
-405.7445789929735
 30
0.0
 11
-681.7804682535436
 21
-405.7445789929735
 31
0.0
  0
LINE
  5
138
330
1F
100
AcDbEntity
  8
0
100
AcDbLine
 10
-686.9850289510626
 20
-382.404538751525
 30
0.0
 11
-672.1493481998885
 21
-382.404538751525
 31
0.0
  0
LINE
  5
139
330
1F
100
AcDbEntity
  8
0
100
AcDbLine
 10
894.4162037895061
 20
-386.3750283558173
 30
0.0
 11
886.5557074783051
 21
-386.3750283558173
 31
0.0
  0
LINE
  5
13A
330
1F
100
AcDbEntity
  8
0
100
AcDbLine
 10
895.0600669685803
 20
-398.2596695362331
 30
0.0
 11
898.0312272636842
 21
-398.1456520982717
 31
0.0
  0
LINE
  5
13B
330
1F
100
AcDbEntity
  8
0
100
AcDbLine
 10
902.6925284038584
 20
-420.405880133148
 30
0.0
 11
899.8119113683115
 21
-420.8988378796266
 31
0.0
  0
LINE
  5
13C
330
1F
100
AcDbEntity
  8
0
100
AcDbLine
 10
900.0231789739456
 20
-397.8035997843887
 30
0.0
 11
901.763621629881
 21
-397.0188915348918
 31
0.0
  0
LINE
  5
13D
330
1F
100
AcDbEntity
  8
0
100
AcDbLine
 10
999.5268677734093
 20
-401.2375367394525
 30
0.0
 11
1019.057384205334
 21
-381.7338479399891
 31
0.0
  0
LINE
  5
13E
330
1F
100
AcDbEntity
  8
0
100
AcDbLine
 10
1026.83739761915
 20
-421.063157128453
 30
0.0
 11
1019.969523709023
 21
-421.063157128453
 31
0.0
  0
LINE
  5
13F
330
1F
100
AcDbEntity
  8
0
100
AcDbLine
 10
1005.965499564153
 20
-401.1570538420683
 30
0.0
 11
999.5268677734093
 21
-407.4347198380438
 31
0.0
  0
LINE
  5
140
330
1F
100
AcDbEntity
  8
0
100
AcDbLine
 10
896.3477933267293
 20
-416.4219767126247
 30
0.0
 11
899.889040811639
 21
-416.2341832853946
 31
0.0
  0
LINE
  5
141
330
1F
100
AcDbEntity
  8
0
100
AcDbLine
 10
898.0312272636842
 20
-386.512519972182
 30
0.0
 11
894.4162037895061
 21
-386.3750283558173
 31
0.0
  0
LINE
  5
142
330
1F
100
AcDbEntity
  8
0
100
AcDbLine
 10
901.5389402080167
 20
-415.8049411660116
 30
0.0
 11
902.8937356473194
 21
-415.1610779869374
 31
0.0
  0
LINE
  5
143
330
1F
100
AcDbEntity
  8
0
100
AcDbLine
 10
903.9936685782384
 20
-414.2388781210755
 30
0.0
 11
904.8789804494654
 21
-412.9746259413304
 31
0.0
  0
LINE
  5
144
330
1F
100
AcDbEntity
  8
0
 62
   250
420
  1973790
100
AcDbLine
 10
-1306.47122796177
 20
-300.5947191371996
 30
0.0
 11
-1301.471227961771
 21
-300.594719143616
 31
0.0
  0
LINE
  5
145
330
1F
100
AcDbEntity
  8
0
100
AcDbLine
 10
910.5697919853473
 20
-406.4555112532013
 30
0.0
 11
911.0493359155961
 21
-409.6614133323431
 31
0.0
  0
LINE
  5
146
330
1F
100
AcDbEntity
  8
0
 62
   250
420
  1973790
100
AcDbLine
 10
-123.4713316105984
 20
-305.5947204256183
 30
0.0
 11
-1301.471227968251
 21
-305.5947185730651
 31
0.0
  0
LINE
  5
147
330
1F
100
AcDbEntity
  8
0
 62
   250
420
  1973790
100
AcDbLine
 10
-123.4713316105984
 20
-305.5947204256183
 30
0.0
 11
-123.471332171977
 21
-300.5947204269853
 31
0.0
  0
LINE
  5
148
330
1F
100
AcDbEntity
  8
0
 62
   250
420
  1973790
100
AcDbLine
 10
-123.471332171977
 20
-300.5947204269853
 30
0.0
 11
-118.4713321719723
 21
-300.5947204333974
 31
0.0
  0
LINE
  5
149
330
1F
100
AcDbEntity
  8
0
 62
   250
420
  1973790
100
AcDbLine
 10
-118.4713318088191
 20
417.4045380323019
 30
0.0
 11
-118.4713321719723
 21
-300.5947204333974
 31
0.0
  0
LINE
  5
14A
330
1F
100
AcDbEntity
  8
0
100
AcDbLine
 10
-118.4713318088191
 20
417.4045380323019
 30
0.0
 11
-123.4713312409581
 21
417.4045374695258
 31
0.0
  0
LINE
  5
14B
330
1F
100
AcDbEntity
  8
0
 62
   250
420
  1973790
100
AcDbLine
 10
-123.4713312409581
 20
417.4045374695258
 30
0.0
 11
-123.4713318023367
 21
422.4045374681627
 31
0.0
  0
LINE
  5
14C
330
1F
100
AcDbEntity
  8
0
 62
   250
420
  1973790
100
AcDbLine
 10
-1301.471227592132
 20
422.4045387515249
 30
0.0
 11
-123.4713318023367
 21
422.4045374681627
 31
0.0
  0
LINE
  5
14D
330
1F
100
AcDbEntity
  8
0
100
AcDbLine
 10
-1301.471227592132
 20
422.4045387515249
 30
0.0
 11
-1301.471227598611
 21
417.4045393220833
 31
0.0
  0
LINE
  5
14E
330
1F
100
AcDbEntity
  8
0
100
AcDbLine
 10
-1301.471227598611
 20
417.4045393220833
 30
0.0
 11
-1306.471227030754
 21
417.4045387593086
 31
0.0
  0
LINE
  5
14F
330
1F
100
AcDbEntity
  8
0
 62
   250
420
  1973790
100
AcDbLine
 10
-1306.47122796177
 20
-300.5947191371996
 30
0.0
 11
-1306.471227030754
 21
417.4045387593086
 31
0.0
  0
LINE
  5
150
330
1F
100
AcDbEntity
  8
0
100
AcDbLine
 10
-1301.471227961771
 20
-300.594719143616
 30
0.0
 11
-1301.471227968251
 21
-305.5947185730651
 31
0.0
  0
LINE
  5
151
330
1F
100
AcDbEntity
  8
0
100
AcDbLine
 10
930.7743526828657
 20
-389.6345856998819
 30
0.0
 11
929.5604023139858
 21
-393.3770404282519
 31
0.0
  0
LINE
  5
152
330
1F
100
AcDbEntity
  8
0
100
AcDbLine
 10
906.0593962777689
 20
-398.5547734933088
 30
0.0
 11
903.6449093562399
 21
-400.1376038085336
 31
0.0
  0
LINE
  5
153
330
1F
100
AcDbEntity
  8
0
100
AcDbLine
 10
940.1841447687143
 20
-409.1516883155759
 30
0.0
 11
923.7388060698544
 21
-409.1516883155759
 31
0.0
  0
LINE
  5
154
330
1F
100
AcDbEntity
  8
0
100
AcDbLine
 10
907.776364755301
 20
-396.5427010587014
 30
0.0
 11
906.0593962777689
 21
-398.5547734933088
 31
0.0
  0
LINE
  5
155
330
1F
100
AcDbEntity
  8
0
100
AcDbLine
 10
928.9970220322962
 20
-381.7338479399891
 30
0.0
 11
934.6039972167357
 21
-381.7338479399891
 31
0.0
  0
LINE
  5
156
330
1F
100
AcDbEntity
  8
0
100
AcDbLine
 10
925.2411534876953
 20
-404.9129223866692
 30
0.0
 11
938.5744868210285
 21
-404.9129223866692
 31
0.0
  0
LINE
  5
157
330
1F
100
AcDbEntity
  8
0
100
AcDbLine
 10
908.7589267942005
 20
-389.1416279534029
 30
0.0
 11
909.1445740108338
 21
-391.7942101130271
 31
0.0
  0
LINE
  5
158
330
1F
100
AcDbEntity
  8
0
100
AcDbLine
 10
913.8930649565074
 20
-421.063157128453
 30
0.0
 11
928.9970220322962
 21
-381.7338479399891
 31
0.0
  0
LINE
  5
159
330
1F
100
AcDbEntity
  8
0
100
AcDbLine
 10
934.6039972167357
 20
-381.7338479399891
 30
0.0
 11
950.7005766935971
 21
-421.063157128453
 31
0.0
  0
LINE
  5
15A
330
1F
100
AcDbEntity
  8
0
100
AcDbLine
 10
950.7005766935971
 20
-421.063157128453
 30
0.0
 11
944.7716699196202
 21
-421.063157128453
 31
0.0
  0
LINE
  5
15B
330
1F
100
AcDbEntity
  8
0
100
AcDbLine
 10
944.7716699196202
 20
-421.063157128453
 30
0.0
 11
940.1841447687143
 21
-409.1516883155759
 31
0.0
  0
LINE
  5
15C
330
1F
100
AcDbEntity
  8
0
100
AcDbLine
 10
923.7388060698544
 20
-409.1516883155759
 30
0.0
 11
919.4195572435639
 21
-421.063157128453
 31
0.0
  0
LINE
  5
15D
330
1F
100
AcDbEntity
  8
0
100
AcDbLine
 10
919.4195572435639
 20
-421.063157128453
 30
0.0
 11
913.8930649565074
 21
-421.063157128453
 31
0.0
  0
LINE
  5
15E
330
1F
100
AcDbEntity
  8
0
100
AcDbLine
 10
938.5744868210285
 20
-404.9129223866692
 30
0.0
 11
934.4698590544284
 21
-394.0209036073261
 31
0.0
  0
LINE
  5
15F
330
1F
100
AcDbEntity
  8
0
100
AcDbLine
 10
934.4698590544284
 20
-394.0209036073261
 30
0.0
 11
931.6797852784391
 21
-385.8653033390502
 31
0.0
  0
LINE
  5
160
330
1F
100
AcDbEntity
  8
0
100
AcDbLine
 10
931.6797852784391
 20
-385.8653033390502
 30
0.0
 11
930.7743526828657
 21
-389.6345856998819
 31
0.0
  0
LINE
  5
161
330
1F
100
AcDbEntity
  8
0
100
AcDbLine
 10
900.1673774984254
 20
-382.0323053511224
 30
0.0
 11
903.3363915829326
 21
-382.9276775845227
 31
0.0
  0
LINE
  5
162
330
1F
100
AcDbEntity
  8
0
100
AcDbLine
 10
908.5778402750858
 20
-416.9015206428728
 30
0.0
 11
906.9983634139188
 21
-418.4608767796939
 31
0.0
  0
LINE
  5
163
330
1F
100
AcDbEntity
  8
0
100
AcDbLine
 10
896.1063446345763
 20
-381.7338479399891
 30
0.0
 11
900.1673774984254
 21
-382.0323053511224
 31
0.0
  0
LINE
  5
164
330
1F
100
AcDbEntity
  8
0
100
AcDbLine
 10
881.3511467807868
 20
-381.7338479399891
 30
0.0
 11
896.1063446345763
 21
-381.7338479399891
 31
0.0
  0
LINE
  5
165
330
1F
100
AcDbEntity
  8
0
100
AcDbLine
 10
-2472.887637545214
 20
-409.0980330506529
 30
0.0
 11
-2467.978180804771
 21
-408.6687909312701
 31
0.0
  0
LINE
  5
166
330
1F
100
AcDbEntity
  8
0
100
AcDbLine
 10
-2467.978180804771
 20
-408.6687909312701
 30
0.0
 11
-2467.398033252793
 21
-411.3549076314713
 31
0.0
  0
LINE
  5
167
330
1F
100
AcDbEntity
  8
0
100
AcDbLine
 10
-2467.398033252793
 20
-411.3549076314713
 30
0.0
 11
-2466.355109040855
 21
-413.511178590559
 31
0.0
  0
LINE
  5
168
330
1F
100
AcDbEntity
  8
0
100
AcDbLine
 10
-2466.355109040855
 20
-413.511178590559
 30
0.0
 11
-2464.72868382288
 21
-415.2214401599757
 31
0.0
  0
LINE
  5
169
330
1F
100
AcDbEntity
  8
0
100
AcDbLine
 10
-2464.72868382288
 20
-415.2214401599757
 30
0.0
 11
-2462.398033252793
 21
-416.5695286911628
 31
0.0
  0
LINE
  5
16A
330
1F
100
AcDbEntity
  8
0
100
AcDbLine
 10
-2462.398033252793
 20
-416.5695286911628
 30
0.0
 11
-2459.547597303765
 21
-417.4447802002171
 31
0.0
  0
LINE
  5
16B
330
1F
100
AcDbEntity
  8
0
100
AcDbLine
 10
-2459.547597303765
 20
-417.4447802002171
 30
0.0
 11
-2456.36181594897
 21
-417.7365307032352
 31
0.0
  0
LINE
  5
16C
330
1F
100
AcDbEntity
  8
0
100
AcDbLine
 10
-2456.36181594897
 20
-417.7365307032352
 30
0.0
 11
-2453.55832835675
 21
-417.5152027354283
 31
0.0
  0
LINE
  5
16D
330
1F
100
AcDbEntity
  8
0
100
AcDbLine
 10
-2453.55832835675
 20
-417.5152027354283
 30
0.0
 11
-2451.103599986528
 21
-416.8512188320078
 31
0.0
  0
LINE
  5
16E
330
1F
100
AcDbEntity
  8
0
100
AcDbLine
 10
-2451.103599986528
 20
-416.8512188320078
 30
0.0
 11
-2449.115001730325
 21
-415.8015877119541
 31
0.0
  0
LINE
  5
16F
330
1F
100
AcDbEntity
  8
0
100
AcDbLine
 10
-2449.115001730325
 20
-415.8015877119541
 30
0.0
 11
-2447.709904480157
 21
-414.4233180942479
 31
0.0
  0
LINE
  5
170
330
1F
100
AcDbEntity
  8
0
100
AcDbLine
 10
-2447.709904480157
 20
-414.4233180942479
 30
0.0
 11
-2446.874894419795
 21
-412.8103066925042
 31
0.0
  0
LINE
  5
171
330
1F
100
AcDbEntity
  8
0
100
AcDbLine
 10
-2446.874894419795
 20
-412.8103066925042
 30
0.0
 11
-2446.596557733008
 21
-411.0564502203377
 31
0.0
  0
LINE
  5
172
330
1F
100
AcDbEntity
  8
0
100
AcDbLine
 10
-2446.596557733008
 20
-411.0564502203377
 30
0.0
 11
-2446.864834057622
 21
-409.3227144725176
 31
0.0
  0
LINE
  5
173
330
1F
100
AcDbEntity
  8
0
100
AcDbLine
 10
-2446.864834057622
 20
-409.3227144725176
 30
0.0
 11
-2447.669663031465
 21
-407.8237205087347
 31
0.0
  0
LINE
  5
174
330
1F
100
AcDbEntity
  8
0
100
AcDbLine
 10
-2447.669663031465
 20
-407.8237205087347
 30
0.0
 11
-2449.091527551921
 21
-406.5527614208743
 31
0.0
  0
LINE
  5
175
330
1F
100
AcDbEntity
  8
0
100
AcDbLine
 10
-2449.091527551921
 20
-406.5527614208743
 30
0.0
 11
-2451.210910516374
 21
-405.5031303008206
 31
0.0
  0
LINE
  5
176
330
1F
100
AcDbEntity
  8
0
100
AcDbLine
 10
-2462.820568464061
 20
-402.3207024000828
 30
0.0
 11
-2465.805142575395
 21
-401.1302262096067
 31
0.0
  0
LINE
  5
177
330
1F
100
AcDbEntity
  8
0
100
AcDbLine
 10
-2465.805142575395
 20
-401.1302262096067
 30
0.0
 11
-2468.263224399674
 21
-399.4769733591708
 31
0.0
  0
LINE
  5
178
330
1F
100
AcDbEntity
  8
0
100
AcDbLine
 10
-2468.263224399674
 20
-399.4769733591708
 30
0.0
 11
-2470.00366705561
 21
-397.4682543786208
 31
0.0
  0
LINE
  5
179
330
1F
100
AcDbEntity
  8
0
100
AcDbLine
 10
-2470.00366705561
 20
-397.4682543786208
 30
0.0
 11
-2471.039884359433
 21
-395.1510176247643
 31
0.0
  0
LINE
  5
17A
330
1F
100
AcDbEntity
  8
0
100
AcDbLine
 10
-2471.039884359433
 20
-395.1510176247643
 30
0.0
 11
-2471.385290127374
 21
-392.5722114544088
 31
0.0
  0
LINE
  5
17B
330
1F
100
AcDbEntity
  8
0
100
AcDbLine
 10
-2471.385290127374
 20
-392.5722114544088
 30
0.0
 11
-2470.962754916106
 21
-389.6915944188622
 31
0.0
  0
LINE
  5
17C
330
1F
100
AcDbEntity
  8
0
100
AcDbLine
 10
-2470.962754916106
 20
-389.6915944188622
 30
0.0
 11
-2469.695149282303
 21
-387.005477718661
 31
0.0
  0
LINE
  5
17D
330
1F
100
AcDbEntity
  8
0
100
AcDbLine
 10
-2469.695149282303
 20
-387.005477718661
 30
0.0
 11
-2467.616007766542
 21
-384.7284824134966
 31
0.0
  0
LINE
  5
17E
330
1F
100
AcDbEntity
  8
0
100
AcDbLine
 10
-2467.616007766542
 20
-384.7284824134966
 30
0.0
 11
-2464.758864909399
 21
-383.0752295630607
 31
0.0
  0
LINE
  5
17F
330
1F
100
AcDbEntity
  8
0
100
AcDbLine
 10
-2464.758864909399
 20
-383.0752295630607
 30
0.0
 11
-2461.331634862451
 21
-382.069193345757
 31
0.0
  0
LINE
  5
180
330
1F
100
AcDbEntity
  8
0
100
AcDbLine
 10
-2461.331634862451
 20
-382.069193345757
 30
0.0
 11
-2457.542231777273
 21
-381.7338479399891
 31
0.0
  0
LINE
  5
181
330
1F
100
AcDbEntity
  8
0
100
AcDbLine
 10
-2457.542231777273
 20
-381.7338479399891
 30
0.0
 11
-2453.4275436485
 21
-382.0859606160454
 31
0.0
  0
LINE
  5
182
330
1F
100
AcDbEntity
  8
0
100
AcDbLine
 10
-2453.4275436485
 20
-382.0859606160454
 30
0.0
 11
-2449.829287444611
 21
-383.1422986442143
 31
0.0
  0
LINE
  5
183
330
1F
100
AcDbEntity
  8
0
100
AcDbLine
 10
-2449.829287444611
 20
-383.1422986442143
 30
0.0
 11
-2446.874894419795
 21
-384.8827413001499
 31
0.0
  0
LINE
  5
184
330
1F
100
AcDbEntity
  8
0
100
AcDbLine
 10
-2446.874894419795
 20
-384.8827413001499
 30
0.0
 11
-2444.691795828246
 21
-387.2871678595062
 31
0.0
  0
LINE
  5
185
330
1F
100
AcDbEntity
  8
0
100
AcDbLine
 10
-2444.691795828246
 20
-387.2871678595062
 30
0.0
 11
-2443.310172756481
 21
-390.2046728896872
 31
0.0
  0
LINE
  5
186
330
1F
100
AcDbEntity
  8
0
100
AcDbLine
 10
-2443.310172756481
 20
-390.2046728896872
 30
0.0
 11
-2442.760206291022
 21
-393.4843509580977
 31
0.0
  0
LINE
  5
187
330
1F
100
AcDbEntity
  8
0
100
AcDbLine
 10
-2442.760206291022
 20
-393.4843509580977
 30
0.0
 11
-2447.750145928849
 21
-393.8599378125577
 31
0.0
  0
LINE
  5
188
330
1F
100
AcDbEntity
  8
0
100
AcDbLine
 10
-2447.750145928849
 20
-393.8599378125577
 30
0.0
 11
-2448.632104346019
 21
-390.5869666522626
 31
0.0
  0
LINE
  5
189
330
1F
100
AcDbEntity
  8
0
100
AcDbLine
 10
-2448.632104346019
 20
-390.5869666522626
 30
0.0
 11
-2449.432741502289
 21
-389.2925333859984
 31
0.0
  0
LINE
  5
18A
330
1F
100
AcDbEntity
  8
0
100
AcDbLine
 10
-2449.432741502289
 20
-389.2925333859984
 30
0.0
 11
-2450.473150623685
 21
-388.2261349956564
 31
0.0
  0
LINE
  5
18B
330
1F
100
AcDbEntity
  8
0
100
AcDbLine
 10
-2450.473150623685
 20
-388.2261349956564
 30
0.0
 11
-2451.771775707521
 21
-387.3928016623231
 31
0.0
  0
LINE
  5
18C
330
1F
100
AcDbEntity
  8
0
100
AcDbLine
 10
-2451.771775707521
 20
-387.3928016623231
 30
0.0
 11
-2453.347060751116
 21
-386.7975635670849
 31
0.0
  0
LINE
  5
18D
330
1F
100
AcDbEntity
  8
0
100
AcDbLine
 10
-2453.347060751116
 20
-386.7975635670849
 30
0.0
 11
-2457.327610717582
 21
-386.3213730908944
 31
0.0
  0
LINE
  5
18E
330
1F
100
AcDbEntity
  8
0
100
AcDbLine
 10
-2457.327610717582
 20
-386.3213730908944
 30
0.0
 11
-2461.408764305777
 21
-386.7539686643351
 31
0.0
  0
LINE
  5
18F
330
1F
100
AcDbEntity
  8
0
100
AcDbLine
 10
-2461.408764305777
 20
-386.7539686643351
 30
0.0
 11
-2462.968958806112
 21
-387.2947131311359
 31
0.0
  0
LINE
  5
190
330
1F
100
AcDbEntity
  8
0
100
AcDbLine
 10
-2462.968958806112
 20
-387.2947131311359
 30
0.0
 11
-2464.20889844394
 21
-388.051755384657
 31
0.0
  0
LINE
  5
191
330
1F
100
AcDbEntity
  8
0
100
AcDbLine
 10
-2464.20889844394
 20
-388.051755384657
 30
0.0
 11
-2465.828616753799
 21
-389.9598707434765
 31
0.0
  0
LINE
  5
192
330
1F
100
AcDbEntity
  8
0
100
AcDbLine
 10
-2465.828616753799
 20
-389.9598707434765
 30
0.0
 11
-2466.368522857085
 21
-392.2234522324102
 31
0.0
  0
LINE
  5
193
330
1F
100
AcDbEntity
  8
0
100
AcDbLine
 10
-2466.368522857085
 20
-392.2234522324102
 30
0.0
 11
-2465.98622909451
 21
-394.1550417696336
 31
0.0
  0
LINE
  5
194
330
1F
100
AcDbEntity
  8
0
100
AcDbLine
 10
-2465.98622909451
 20
-394.1550417696336
 30
0.0
 11
-2464.839347806783
 21
-395.7110444523968
 31
0.0
  0
LINE
  5
195
330
1F
100
AcDbEntity
  8
0
100
AcDbLine
 10
-2464.839347806783
 20
-395.7110444523968
 30
0.0
 11
-2462.126403474121
 21
-397.0960209782184
 31
0.0
  0
LINE
  5
196
330
1F
100
AcDbEntity
  8
0
100
AcDbLine
 10
-2462.126403474121
 20
-397.0960209782184
 30
0.0
 11
-2456.992265311814
 21
-398.5145320446167
 31
0.0
  0
LINE
  5
197
330
1F
100
AcDbEntity
  8
0
100
AcDbLine
 10
-2456.992265311814
 20
-398.5145320446167
 30
0.0
 11
-2451.643506089815
 21
-399.8592671217463
 31
0.0
  0
LINE
  5
198
330
1F
100
AcDbEntity
  8
0
100
AcDbLine
 10
-2451.643506089815
 20
-399.8592671217463
 30
0.0
 11
-2448.286698578077
 21
-401.022915679761
 31
0.0
  0
LINE
  5
199
330
1F
100
AcDbEntity
  8
0
100
AcDbLine
 10
-2448.286698578077
 20
-401.022915679761
 30
0.0
 11
-2445.302124466743
 21
-402.8170136006195
 31
0.0
  0
LINE
  5
19A
330
1F
100
AcDbEntity
  8
0
100
AcDbLine
 10
-2445.302124466743
 20
-402.8170136006195
 30
0.0
 11
-2443.216276042867
 21
-405.0336467327455
 31
0.0
  0
LINE
  5
19B
330
1F
100
AcDbEntity
  8
0
100
AcDbLine
 10
-2443.216276042867
 20
-405.0336467327455
 30
0.0
 11
-2441.988911857756
 21
-407.6459874436778
 31
0.0
  0
LINE
  5
19C
330
1F
100
AcDbEntity
  8
0
100
AcDbLine
 10
-2441.988911857756
 20
-407.6459874436778
 30
0.0
 11
-2441.579790462719
 21
-410.6272081009549
 31
0.0
  0
LINE
  5
19D
330
1F
100
AcDbEntity
  8
0
100
AcDbLine
 10
-2441.579790462719
 20
-410.6272081009549
 30
0.0
 11
-2442.029153306448
 21
-413.6754978393855
 31
0.0
  0
LINE
  5
19E
330
1F
100
AcDbEntity
  8
0
100
AcDbLine
 10
-2442.029153306448
 20
-413.6754978393855
 30
0.0
 11
-2443.377241837635
 21
-416.5427010587014
 31
0.0
  0
LINE
  5
19F
330
1F
100
AcDbEntity
  8
0
100
AcDbLine
 10
-2443.377241837635
 20
-416.5427010587014
 30
0.0
 11
-2445.5670473373
 21
-419.0108432451534
 31
0.0
  0
LINE
  5
1A0
330
1F
100
AcDbEntity
  8
0
100
AcDbLine
 10
-2445.5670473373
 20
-419.0108432451534
 30
0.0
 11
-2448.541561086462
 21
-420.8619498849924
 31
0.0
  0
LINE
  5
1A1
330
1F
100
AcDbEntity
  8
0
100
AcDbLine
 10
-2448.541561086462
 20
-420.8619498849924
 30
0.0
 11
-2452.119696566006
 21
-422.0188915348917
 31
0.0
  0
LINE
  5
1A2
330
1F
100
AcDbEntity
  8
0
100
AcDbLine
 10
-2452.119696566006
 20
-422.0188915348917
 30
0.0
 11
-2456.120367256817
 21
-422.4045387515249
 31
0.0
  0
LINE
  5
1A3
330
1F
100
AcDbEntity
  8
0
100
AcDbLine
 10
-2456.120367256817
 20
-422.4045387515249
 30
0.0
 11
-2461.026470543202
 21
-422.0155380808341
 31
0.0
  0
LINE
  5
1A4
330
1F
100
AcDbEntity
  8
0
100
AcDbLine
 10
-2461.026470543202
 20
-422.0155380808341
 30
0.0
 11
-2465.067382682706
 21
-420.8485360687617
 31
0.0
  0
LINE
  5
1A5
330
1F
100
AcDbEntity
  8
0
100
AcDbLine
 10
-2465.067382682706
 20
-420.8485360687617
 30
0.0
 11
-2468.286698578078
 21
-418.9001792612499
 31
0.0
  0
LINE
  5
1A6
330
1F
100
AcDbEntity
  8
0
100
AcDbLine
 10
-2468.286698578078
 20
-418.9001792612499
 30
0.0
 11
-2470.728013132068
 21
-416.1671142042412
 31
0.0
  0
LINE
  5
1A7
330
1F
100
AcDbEntity
  8
0
100
AcDbLine
 10
-2470.728013132068
 20
-416.1671142042412
 30
0.0
 11
-2472.294076177005
 21
-412.8371343249656
 31
0.0
  0
LINE
  5
1A8
330
1F
100
AcDbEntity
  8
0
100
AcDbLine
 10
-2472.294076177005
 20
-412.8371343249656
 30
0.0
 11
-2472.887637545214
 21
-409.0980330506529
 31
0.0
  0
LINE
  5
1A9
330
1F
100
AcDbEntity
  8
0
100
AcDbLine
 10
-2433.585155989211
 20
-421.7338479399889
 30
0.0
 11
-2433.585155989211
 21
-382.404538751525
 31
0.0
  0
LINE
  5
1AA
330
1F
100
AcDbEntity
  8
0
100
AcDbLine
 10
-2433.585155989211
 20
-382.404538751525
 30
0.0
 11
-2428.380595291693
 21
-382.404538751525
 31
0.0
  0
LINE
  5
1AB
330
1F
100
AcDbEntity
  8
0
100
AcDbLine
 10
-2428.380595291693
 20
-382.404538751525
 30
0.0
 11
-2428.380595291693
 21
-421.7338479399889
 31
0.0
  0
LINE
  5
1AC
330
1F
100
AcDbEntity
  8
0
100
AcDbLine
 10
-2428.380595291693
 20
-421.7338479399889
 30
0.0
 11
-2433.585155989211
 21
-421.7338479399889
 31
0.0
  0
LINE
  5
1AD
330
1F
100
AcDbEntity
  8
0
100
AcDbLine
 10
-2419.205544989882
 20
-421.7338479399889
 30
0.0
 11
-2419.205544989882
 21
-382.404538751525
 31
0.0
  0
LINE
  5
1AE
330
1F
100
AcDbEntity
  8
0
100
AcDbLine
 10
-2419.205544989882
 20
-382.404538751525
 30
0.0
 11
-2405.657590596857
 21
-382.404538751525
 31
0.0
  0
LINE
  5
1AF
330
1F
100
AcDbEntity
  8
0
100
AcDbLine
 10
-2405.657590596857
 20
-382.404538751525
 30
0.0
 11
-2401.613325003296
 21
-382.5453838219474
 31
0.0
  0
LINE
  5
1B0
330
1F
100
AcDbEntity
  8
0
100
AcDbLine
 10
-2401.613325003296
 20
-382.5453838219474
 30
0.0
 11
-2398.655578524423
 21
-382.967919033215
 31
0.0
  0
LINE
  5
1B1
330
1F
100
AcDbEntity
  8
0
100
AcDbLine
 10
-2398.655578524423
 20
-382.967919033215
 30
0.0
 11
-2395.52345243455
 21
-384.0611450560185
 31
0.0
  0
LINE
  5
1B2
330
1F
100
AcDbEntity
  8
0
100
AcDbLine
 10
-2395.52345243455
 20
-384.0611450560185
 30
0.0
 11
-2392.887637545214
 21
-385.7848204416658
 31
0.0
  0
LINE
  5
1B3
330
1F
100
AcDbEntity
  8
0
100
AcDbLine
 10
-2392.887637545214
 20
-385.7848204416658
 30
0.0
 11
-2390.167986304436
 21
-388.7794549151734
 31
0.0
  0
LINE
  5
1B4
330
1F
100
AcDbEntity
  8
0
100
AcDbLine
 10
-2390.167986304436
 20
-388.7794549151734
 30
0.0
 11
-2388.233043313155
 21
-392.5051423732554
 31
0.0
  0
LINE
  5
1B5
330
1F
100
AcDbEntity
  8
0
100
AcDbLine
 10
-2388.233043313155
 20
-392.5051423732554
 30
0.0
 11
-2387.076101663255
 21
-396.8881068266423
 31
0.0
  0
LINE
  5
1B6
330
1F
100
AcDbEntity
  8
0
100
AcDbLine
 10
-2387.076101663255
 20
-396.8881068266423
 30
0.0
 11
-2386.690454446623
 21
-401.8545722860654
 31
0.0
  0
LINE
  5
1B7
330
1F
100
AcDbEntity
  8
0
100
AcDbLine
 10
-2386.690454446623
 20
-401.8545722860654
 30
0.0
 11
-2386.952023863121
 21
-406.0799243987415
 31
0.0
  0
LINE
  5
1B8
330
1F
100
AcDbEntity
  8
0
100
AcDbLine
 10
-2386.952023863121
 20
-406.0799243987415
 30
0.0
 11
-2387.736732112618
 21
-409.7955514946502
 31
0.0
  0
LINE
  5
1B9
330
1F
100
AcDbEntity
  8
0
100
AcDbLine
 10
-2387.736732112618
 20
-409.7955514946502
 30
0.0
 11
-2388.930561757153
 21
-412.957858671042
 31
0.0
  0
LINE
  5
1BA
330
1F
100
AcDbEntity
  8
0
100
AcDbLine
 10
-2388.930561757153
 20
-412.957858671042
 30
0.0
 11
-2390.419495358762
 21
-415.5232510251668
 31
0.0
  0
LINE
  5
1BB
330
1F
100
AcDbEntity
  8
0
100
AcDbLine
 10
-2390.419495358762
 20
-415.5232510251668
 30
0.0
 11
-2392.133110382236
 21
-417.5487372760051
 31
0.0
  0
LINE
  5
1BC
330
1F
100
AcDbEntity
  8
0
100
AcDbLine
 10
-2392.133110382236
 20
-417.5487372760051
 30
0.0
 11
-2394.000984292364
 21
-419.0913261425375
 31
0.0
  0
LINE
  5
1BD
330
1F
100
AcDbEntity
  8
0
100
AcDbLine
 10
-2394.000984292364
 20
-419.0913261425375
 30
0.0
 11
-2396.147194889279
 21
-420.2348539762063
 31
0.0
  0
LINE
  5
1BE
330
1F
100
AcDbEntity
  8
0
100
AcDbLine
 10
-2396.147194889279
 20
-420.2348539762063
 30
0.0
 11
-2398.695819973115
 21
-421.063157128453
 31
0.0
  0
LINE
  5
1BF
330
1F
100
AcDbEntity
  8
0
100
AcDbLine
 10
-2398.695819973115
 20
-421.063157128453
 30
0.0
 11
-2401.65021299793
 21
-421.566175237105
 31
0.0
  0
LINE
  5
1C0
330
1F
100
AcDbEntity
  8
0
100
AcDbLine
 10
-2401.65021299793
 20
-421.566175237105
 30
0.0
 11
-2405.013727417783
 21
-421.7338479399889
 31
0.0
  0
LINE
  5
1C1
330
1F
100
AcDbEntity
  8
0
100
AcDbLine
 10
-2405.013727417783
 20
-421.7338479399889
 30
0.0
 11
-2419.205544989882
 21
-421.7338479399889
 31
0.0
  0
LINE
  5
1C2
330
1F
100
AcDbEntity
  8
0
100
AcDbLine
 10
-2414.000984292364
 20
-417.0926675241607
 30
0.0
 11
-2405.603935331934
 21
-417.0926675241607
 31
0.0
  0
LINE
  5
1C3
330
1F
100
AcDbEntity
  8
0
100
AcDbLine
 10
-2405.603935331934
 20
-417.0926675241607
 30
0.0
 11
-2402.133110382236
 21
-416.911581005046
 31
0.0
  0
LINE
  5
1C4
330
1F
100
AcDbEntity
  8
0
100
AcDbLine
 10
-2402.133110382236
 20
-416.911581005046
 30
0.0
 11
-2399.500648946958
 21
-416.3683214477019
 31
0.0
  0
LINE
  5
1C5
330
1F
100
AcDbEntity
  8
0
100
AcDbLine
 10
-2399.500648946958
 20
-416.3683214477019
 30
0.0
 11
-2397.512050690754
 21
-415.4964233927054
 31
0.0
  0
LINE
  5
1C6
330
1F
100
AcDbEntity
  8
0
100
AcDbLine
 10
-2397.512050690754
 20
-415.4964233927054
 30
0.0
 11
-2395.972815278279
 21
-414.3294213806328
 31
0.0
  0
LINE
  5
1C7
330
1F
100
AcDbEntity
  8
0
100
AcDbLine
 10
-2395.972815278279
 20
-414.3294213806328
 30
0.0
 11
-2394.326269335959
 21
-412.1597366053144
 31
0.0
  0
LINE
  5
1C8
330
1F
100
AcDbEntity
  8
0
100
AcDbLine
 10
-2394.326269335959
 20
-412.1597366053144
 30
0.0
 11
-2393.088844788675
 21
-409.3528955590367
 31
0.0
  0
LINE
  5
1C9
330
1F
100
AcDbEntity
  8
0
100
AcDbLine
 10
-2393.088844788675
 20
-409.3528955590367
 30
0.0
 11
-2392.314196901351
 21
-405.8954844255692
 31
0.0
  0
LINE
  5
1CA
330
1F
100
AcDbEntity
  8
0
100
AcDbLine
 10
-2392.314196901351
 20
-405.8954844255692
 30
0.0
 11
-2392.055980938909
 21
-401.7740893886811
 31
0.0
  0
LINE
  5
1CB
330
1F
100
AcDbEntity
  8
0
100
AcDbLine
 10
-2392.055980938909
 20
-401.7740893886811
 30
0.0
 11
-2392.562352501619
 21
-396.3180196368368
 31
0.0
  0
LINE
  5
1CC
330
1F
100
AcDbEntity
  8
0
100
AcDbLine
 10
-2392.562352501619
 20
-396.3180196368368
 30
0.0
 11
-2393.195316955006
 21
-394.1256990466289
 31
0.0
  0
LINE
  5
1CD
330
1F
100
AcDbEntity
  8
0
100
AcDbLine
 10
-2393.195316955006
 20
-394.1256990466289
 30
0.0
 11
-2394.081467189748
 21
-392.2905213135638
 31
0.0
  0
LINE
  5
1CE
330
1F
100
AcDbEntity
  8
0
100
AcDbLine
 10
-2394.081467189748
 20
-392.2905213135638
 30
0.0
 11
-2396.324927954336
 21
-389.5239217159782
 31
0.0
  0
LINE
  5
1CF
330
1F
100
AcDbEntity
  8
0
100
AcDbLine
 10
-2396.324927954336
 20
-389.5239217159782
 30
0.0
 11
-2399.004337746422
 21
-387.8505481411962
 31
0.0
  0
LINE
  5
1D0
330
1F
100
AcDbEntity
  8
0
100
AcDbLine
 10
-2399.004337746422
 20
-387.8505481411962
 30
0.0
 11
-2401.734049349373
 21
-387.2469264108139
 31
0.0
  0
LINE
  5
1D1
330
1F
100
AcDbEntity
  8
0
100
AcDbLine
 10
-2401.734049349373
 20
-387.2469264108139
 30
0.0
 11
-2405.738073494242
 21
-387.0457191673533
 31
0.0
  0
LINE
  5
1D2
330
1F
100
AcDbEntity
  8
0
100
AcDbLine
 10
-2405.738073494242
 20
-387.0457191673533
 30
0.0
 11
-2414.000984292364
 21
-387.0457191673533
 31
0.0
  0
LINE
  5
1D3
330
1F
100
AcDbEntity
  8
0
100
AcDbLine
 10
-2414.000984292364
 20
-387.0457191673533
 30
0.0
 11
-2414.000984292364
 21
-417.0926675241607
 31
0.0
  0
LINE
  5
1D4
330
1F
100
AcDbEntity
  8
0
100
AcDbLine
 10
-2379.420166049574
 20
-421.7338479399889
 30
0.0
 11
-2379.420166049574
 21
-382.404538751525
 31
0.0
  0
LINE
  5
1D5
330
1F
100
AcDbEntity
  8
0
100
AcDbLine
 10
-2379.420166049574
 20
-382.404538751525
 30
0.0
 11
-2350.982875640452
 21
-382.404538751525
 31
0.0
  0
LINE
  5
1D6
330
1F
100
AcDbEntity
  8
0
100
AcDbLine
 10
-2350.982875640452
 20
-382.404538751525
 30
0.0
 11
-2350.982875640452
 21
-387.0457191673533
 31
0.0
  0
LINE
  5
1D7
330
1F
100
AcDbEntity
  8
0
100
AcDbLine
 10
-2350.982875640452
 20
-387.0457191673533
 30
0.0
 11
-2374.215605352055
 21
-387.0457191673533
 31
0.0
  0
LINE
  5
1D8
330
1F
100
AcDbEntity
  8
0
100
AcDbLine
 10
-2374.215605352055
 20
-387.0457191673533
 30
0.0
 11
-2374.215605352055
 21
-399.0913261425376
 31
0.0
  0
LINE
  5
1D9
330
1F
100
AcDbEntity
  8
0
100
AcDbLine
 10
-2374.215605352055
 20
-399.0913261425376
 30
0.0
 11
-2352.458395425831
 21
-399.0913261425376
 31
0.0
  0
LINE
  5
1DA
330
1F
100
AcDbEntity
  8
0
100
AcDbLine
 10
-2352.458395425831
 20
-399.0913261425376
 30
0.0
 11
-2352.458395425831
 21
-403.7056789259045
 31
0.0
  0
LINE
  5
1DB
330
1F
100
AcDbEntity
  8
0
100
AcDbLine
 10
-2352.458395425831
 20
-403.7056789259045
 30
0.0
 11
-2374.215605352055
 21
-403.7056789259045
 31
0.0
  0
LINE
  5
1DC
330
1F
100
AcDbEntity
  8
0
100
AcDbLine
 10
-2374.215605352055
 20
-403.7056789259045
 30
0.0
 11
-2374.215605352055
 21
-417.0926675241607
 31
0.0
  0
LINE
  5
1DD
330
1F
100
AcDbEntity
  8
0
100
AcDbLine
 10
-2374.215605352055
 20
-417.0926675241607
 30
0.0
 11
-2350.070736136763
 21
-417.0926675241607
 31
0.0
  0
LINE
  5
1DE
330
1F
100
AcDbEntity
  8
0
100
AcDbLine
 10
-2350.070736136763
 20
-417.0926675241607
 30
0.0
 11
-2350.070736136763
 21
-421.7338479399889
 31
0.0
  0
LINE
  5
1DF
330
1F
100
AcDbEntity
  8
0
100
AcDbLine
 10
-2350.070736136763
 20
-421.7338479399889
 30
0.0
 11
-2379.420166049574
 21
-421.7338479399889
 31
0.0
  0
LINE
  5
1E0
330
1F
100
AcDbEntity
  8
0
100
AcDbLine
 10
-2344.651554379554
 20
-409.0980330506529
 30
0.0
 11
-2339.742097639111
 21
-408.6687909312701
 31
0.0
  0
LINE
  5
1E1
330
1F
100
AcDbEntity
  8
0
100
AcDbLine
 10
-2339.742097639111
 20
-408.6687909312701
 30
0.0
 11
-2339.161950087132
 21
-411.3549076314713
 31
0.0
  0
LINE
  5
1E2
330
1F
100
AcDbEntity
  8
0
100
AcDbLine
 10
-2339.161950087132
 20
-411.3549076314713
 30
0.0
 11
-2338.119025875194
 21
-413.511178590559
 31
0.0
  0
LINE
  5
1E3
330
1F
100
AcDbEntity
  8
0
100
AcDbLine
 10
-2338.119025875194
 20
-413.511178590559
 30
0.0
 11
-2336.492600657219
 21
-415.2214401599757
 31
0.0
  0
LINE
  5
1E4
330
1F
100
AcDbEntity
  8
0
100
AcDbLine
 10
-2336.492600657219
 20
-415.2214401599757
 30
0.0
 11
-2334.161950087132
 21
-416.5695286911628
 31
0.0
  0
LINE
  5
1E5
330
1F
100
AcDbEntity
  8
0
100
AcDbLine
 10
-2334.161950087132
 20
-416.5695286911628
 30
0.0
 11
-2331.311514138104
 21
-417.4447802002171
 31
0.0
  0
LINE
  5
1E6
330
1F
100
AcDbEntity
  8
0
100
AcDbLine
 10
-2331.311514138104
 20
-417.4447802002171
 30
0.0
 11
-2328.125732783309
 21
-417.7365307032352
 31
0.0
  0
LINE
  5
1E7
330
1F
100
AcDbEntity
  8
0
100
AcDbLine
 10
-2328.125732783309
 20
-417.7365307032352
 30
0.0
 11
-2325.322245191089
 21
-417.5152027354283
 31
0.0
  0
LINE
  5
1E8
330
1F
100
AcDbEntity
  8
0
100
AcDbLine
 10
-2325.322245191089
 20
-417.5152027354283
 30
0.0
 11
-2322.867516820868
 21
-416.8512188320078
 31
0.0
  0
LINE
  5
1E9
330
1F
100
AcDbEntity
  8
0
100
AcDbLine
 10
-2322.867516820868
 20
-416.8512188320078
 30
0.0
 11
-2320.878918564664
 21
-415.8015877119541
 31
0.0
  0
LINE
  5
1EA
330
1F
100
AcDbEntity
  8
0
100
AcDbLine
 10
-2320.878918564664
 20
-415.8015877119541
 30
0.0
 11
-2319.473821314496
 21
-414.4233180942479
 31
0.0
  0
LINE
  5
1EB
330
1F
100
AcDbEntity
  8
0
100
AcDbLine
 10
-2319.473821314496
 20
-414.4233180942479
 30
0.0
 11
-2318.638811254134
 21
-412.8103066925042
 31
0.0
  0
LINE
  5
1EC
330
1F
100
AcDbEntity
  8
0
100
AcDbLine
 10
-2318.638811254134
 20
-412.8103066925042
 30
0.0
 11
-2318.360474567347
 21
-411.0564502203377
 31
0.0
  0
LINE
  5
1ED
330
1F
100
AcDbEntity
  8
0
100
AcDbLine
 10
-2318.360474567347
 20
-411.0564502203377
 30
0.0
 11
-2318.628750891961
 21
-409.3227144725176
 31
0.0
  0
LINE
  5
1EE
330
1F
100
AcDbEntity
  8
0
100
AcDbLine
 10
-2318.628750891961
 20
-409.3227144725176
 30
0.0
 11
-2319.433579865804
 21
-407.8237205087347
 31
0.0
  0
LINE
  5
1EF
330
1F
100
AcDbEntity
  8
0
100
AcDbLine
 10
-2319.433579865804
 20
-407.8237205087347
 30
0.0
 11
-2320.85544438626
 21
-406.5527614208743
 31
0.0
  0
LINE
  5
1F0
330
1F
100
AcDbEntity
  8
0
100
AcDbLine
 10
-2320.85544438626
 20
-406.5527614208743
 30
0.0
 11
-2322.974827350713
 21
-405.5031303008206
 31
0.0
  0
LINE
  5
1F1
330
1F
100
AcDbEntity
  8
0
100
AcDbLine
 10
-2334.5844852984
 20
-402.3207024000828
 30
0.0
 11
-2337.569059409735
 21
-401.1302262096067
 31
0.0
  0
LINE
  5
1F2
330
1F
100
AcDbEntity
  8
0
100
AcDbLine
 10
-2337.569059409735
 20
-401.1302262096067
 30
0.0
 11
-2340.027141234013
 21
-399.4769733591708
 31
0.0
  0
LINE
  5
1F3
330
1F
100
AcDbEntity
  8
0
100
AcDbLine
 10
-2340.027141234013
 20
-399.4769733591708
 30
0.0
 11
-2341.767583889949
 21
-397.4682543786208
 31
0.0
  0
LINE
  5
1F4
330
1F
100
AcDbEntity
  8
0
100
AcDbLine
 10
-2341.767583889949
 20
-397.4682543786208
 30
0.0
 11
-2342.803801193772
 21
-395.1510176247643
 31
0.0
  0
LINE
  5
1F5
330
1F
100
AcDbEntity
  8
0
100
AcDbLine
 10
-2342.803801193772
 20
-395.1510176247643
 30
0.0
 11
-2343.149206961713
 21
-392.5722114544088
 31
0.0
  0
LINE
  5
1F6
330
1F
100
AcDbEntity
  8
0
100
AcDbLine
 10
-2343.149206961713
 20
-392.5722114544088
 30
0.0
 11
-2342.726671750445
 21
-389.6915944188622
 31
0.0
  0
LINE
  5
1F7
330
1F
100
AcDbEntity
  8
0
100
AcDbLine
 10
-2342.726671750445
 20
-389.6915944188622
 30
0.0
 11
-2341.459066116642
 21
-387.005477718661
 31
0.0
  0
LINE
  5
1F8
330
1F
100
AcDbEntity
  8
0
100
AcDbLine
 10
-2341.459066116642
 20
-387.005477718661
 30
0.0
 11
-2339.379924600881
 21
-384.7284824134966
 31
0.0
  0
LINE
  5
1F9
330
1F
100
AcDbEntity
  8
0
100
AcDbLine
 10
-2339.379924600881
 20
-384.7284824134966
 30
0.0
 11
-2336.522781743739
 21
-383.0752295630607
 31
0.0
  0
LINE
  5
1FA
330
1F
100
AcDbEntity
  8
0
100
AcDbLine
 10
-2336.522781743739
 20
-383.0752295630607
 30
0.0
 11
-2333.09555169679
 21
-382.069193345757
 31
0.0
  0
LINE
  5
1FB
330
1F
100
AcDbEntity
  8
0
100
AcDbLine
 10
-2333.09555169679
 20
-382.069193345757
 30
0.0
 11
-2329.306148611612
 21
-381.7338479399891
 31
0.0
  0
LINE
  5
1FC
330
1F
100
AcDbEntity
  8
0
100
AcDbLine
 10
-2329.306148611612
 20
-381.7338479399891
 30
0.0
 11
-2325.19146048284
 21
-382.0859606160454
 31
0.0
  0
LINE
  5
1FD
330
1F
100
AcDbEntity
  8
0
100
AcDbLine
 10
-2325.19146048284
 20
-382.0859606160454
 30
0.0
 11
-2321.59320427895
 21
-383.1422986442143
 31
0.0
  0
LINE
  5
1FE
330
1F
100
AcDbEntity
  8
0
100
AcDbLine
 10
-2321.59320427895
 20
-383.1422986442143
 30
0.0
 11
-2318.638811254134
 21
-384.8827413001499
 31
0.0
  0
LINE
  5
1FF
330
1F
100
AcDbEntity
  8
0
100
AcDbLine
 10
-2318.638811254134
 20
-384.8827413001499
 30
0.0
 11
-2316.455712662585
 21
-387.2871678595062
 31
0.0
  0
LINE
  5
200
330
1F
100
AcDbEntity
  8
0
100
AcDbLine
 10
-2316.455712662585
 20
-387.2871678595062
 30
0.0
 11
-2315.074089590821
 21
-390.2046728896872
 31
0.0
  0
LINE
  5
201
330
1F
100
AcDbEntity
  8
0
100
AcDbLine
 10
-2315.074089590821
 20
-390.2046728896872
 30
0.0
 11
-2314.524123125361
 21
-393.4843509580977
 31
0.0
  0
LINE
  5
202
330
1F
100
AcDbEntity
  8
0
100
AcDbLine
 10
-2314.524123125361
 20
-393.4843509580977
 30
0.0
 11
-2319.514062763189
 21
-393.8599378125577
 31
0.0
  0
LINE
  5
203
330
1F
100
AcDbEntity
  8
0
100
AcDbLine
 10
-2319.514062763189
 20
-393.8599378125577
 30
0.0
 11
-2320.396021180358
 21
-390.5869666522626
 31
0.0
  0
LINE
  5
204
330
1F
100
AcDbEntity
  8
0
100
AcDbLine
 10
-2320.396021180358
 20
-390.5869666522626
 30
0.0
 11
-2321.196658336629
 21
-389.2925333859984
 31
0.0
  0
LINE
  5
205
330
1F
100
AcDbEntity
  8
0
100
AcDbLine
 10
-2321.196658336629
 20
-389.2925333859984
 30
0.0
 11
-2322.237067458024
 21
-388.2261349956564
 31
0.0
  0
LINE
  5
206
330
1F
100
AcDbEntity
  8
0
100
AcDbLine
 10
-2322.237067458024
 20
-388.2261349956564
 30
0.0
 11
-2323.53569254186
 21
-387.3928016623231
 31
0.0
  0
LINE
  5
207
330
1F
100
AcDbEntity
  8
0
100
AcDbLine
 10
-2323.53569254186
 20
-387.3928016623231
 30
0.0
 11
-2325.110977585456
 21
-386.7975635670849
 31
0.0
  0
LINE
  5
208
330
1F
100
AcDbEntity
  8
0
100
AcDbLine
 10
-2325.110977585456
 20
-386.7975635670849
 30
0.0
 11
-2329.091527551921
 21
-386.3213730908944
 31
0.0
  0
LINE
  5
209
330
1F
100
AcDbEntity
  8
0
100
AcDbLine
 10
-2329.091527551921
 20
-386.3213730908944
 30
0.0
 11
-2333.172681140117
 21
-386.7539686643351
 31
0.0
  0
LINE
  5
20A
330
1F
100
AcDbEntity
  8
0
100
AcDbLine
 10
-2333.172681140117
 20
-386.7539686643351
 30
0.0
 11
-2334.732875640452
 21
-387.2947131311359
 31
0.0
  0
LINE
  5
20B
330
1F
100
AcDbEntity
  8
0
100
AcDbLine
 10
-2334.732875640452
 20
-387.2947131311359
 30
0.0
 11
-2335.972815278279
 21
-388.051755384657
 31
0.0
  0
LINE
  5
20C
330
1F
100
AcDbEntity
  8
0
100
AcDbLine
 10
-2335.972815278279
 20
-388.051755384657
 30
0.0
 11
-2337.592533588138
 21
-389.9598707434765
 31
0.0
  0
LINE
  5
20D
330
1F
100
AcDbEntity
  8
0
100
AcDbLine
 10
-2337.592533588138
 20
-389.9598707434765
 30
0.0
 11
-2338.132439691425
 21
-392.2234522324102
 31
0.0
  0
LINE
  5
20E
330
1F
100
AcDbEntity
  8
0
100
AcDbLine
 10
-2338.132439691425
 20
-392.2234522324102
 30
0.0
 11
-2337.750145928849
 21
-394.1550417696336
 31
0.0
  0
LINE
  5
20F
330
1F
100
AcDbEntity
  8
0
100
AcDbLine
 10
-2337.750145928849
 20
-394.1550417696336
 30
0.0
 11
-2336.603264641123
 21
-395.7110444523968
 31
0.0
  0
LINE
  5
210
330
1F
100
AcDbEntity
  8
0
100
AcDbLine
 10
-2336.603264641123
 20
-395.7110444523968
 30
0.0
 11
-2333.89032030846
 21
-397.0960209782184
 31
0.0
  0
LINE
  5
211
330
1F
100
AcDbEntity
  8
0
100
AcDbLine
 10
-2333.89032030846
 20
-397.0960209782184
 30
0.0
 11
-2328.756182146153
 21
-398.5145320446167
 31
0.0
  0
LINE
  5
212
330
1F
100
AcDbEntity
  8
0
100
AcDbLine
 10
-2328.756182146153
 20
-398.5145320446167
 30
0.0
 11
-2323.407422924155
 21
-399.8592671217463
 31
0.0
  0
LINE
  5
213
330
1F
100
AcDbEntity
  8
0
100
AcDbLine
 10
-2323.407422924155
 20
-399.8592671217463
 30
0.0
 11
-2320.050615412417
 21
-401.022915679761
 31
0.0
  0
LINE
  5
214
330
1F
100
AcDbEntity
  8
0
100
AcDbLine
 10
-2320.050615412417
 20
-401.022915679761
 30
0.0
 11
-2317.066041301083
 21
-402.8170136006195
 31
0.0
  0
LINE
  5
215
330
1F
100
AcDbEntity
  8
0
100
AcDbLine
 10
-2317.066041301083
 20
-402.8170136006195
 30
0.0
 11
-2314.980192877206
 21
-405.0336467327455
 31
0.0
  0
LINE
  5
216
330
1F
100
AcDbEntity
  8
0
100
AcDbLine
 10
-2314.980192877206
 20
-405.0336467327455
 30
0.0
 11
-2313.752828692095
 21
-407.6459874436778
 31
0.0
  0
LINE
  5
217
330
1F
100
AcDbEntity
  8
0
100
AcDbLine
 10
-2313.752828692095
 20
-407.6459874436778
 30
0.0
 11
-2313.343707297059
 21
-410.6272081009549
 31
0.0
  0
LINE
  5
218
330
1F
100
AcDbEntity
  8
0
100
AcDbLine
 10
-2313.343707297059
 20
-410.6272081009549
 30
0.0
 11
-2313.793070140788
 21
-413.6754978393855
 31
0.0
  0
LINE
  5
219
330
1F
100
AcDbEntity
  8
0
100
AcDbLine
 10
-2313.793070140788
 20
-413.6754978393855
 30
0.0
 11
-2315.141158671975
 21
-416.5427010587014
 31
0.0
  0
LINE
  5
21A
330
1F
100
AcDbEntity
  8
0
100
AcDbLine
 10
-2315.141158671975
 20
-416.5427010587014
 30
0.0
 11
-2317.330964171639
 21
-419.0108432451534
 31
0.0
  0
LINE
  5
21B
330
1F
100
AcDbEntity
  8
0
100
AcDbLine
 10
-2317.330964171639
 20
-419.0108432451534
 30
0.0
 11
-2320.305477920801
 21
-420.8619498849924
 31
0.0
  0
LINE
  5
21C
330
1F
100
AcDbEntity
  8
0
100
AcDbLine
 10
-2320.305477920801
 20
-420.8619498849924
 30
0.0
 11
-2323.883613400345
 21
-422.0188915348917
 31
0.0
  0
LINE
  5
21D
330
1F
100
AcDbEntity
  8
0
100
AcDbLine
 10
-2323.883613400345
 20
-422.0188915348917
 30
0.0
 11
-2327.884284091156
 21
-422.4045387515249
 31
0.0
  0
LINE
  5
21E
330
1F
100
AcDbEntity
  8
0
100
AcDbLine
 10
-2327.884284091156
 20
-422.4045387515249
 30
0.0
 11
-2332.790387377541
 21
-422.0155380808341
 31
0.0
  0
LINE
  5
21F
330
1F
100
AcDbEntity
  8
0
100
AcDbLine
 10
-2332.790387377541
 20
-422.0155380808341
 30
0.0
 11
-2336.831299517045
 21
-420.8485360687617
 31
0.0
  0
LINE
  5
220
330
1F
100
AcDbEntity
  8
0
100
AcDbLine
 10
-2336.831299517045
 20
-420.8485360687617
 30
0.0
 11
-2340.050615412417
 21
-418.9001792612499
 31
0.0
  0
LINE
  5
221
330
1F
100
AcDbEntity
  8
0
100
AcDbLine
 10
-2340.050615412417
 20
-418.9001792612499
 30
0.0
 11
-2342.491929966407
 21
-416.1671142042412
 31
0.0
  0
LINE
  5
222
330
1F
100
AcDbEntity
  8
0
100
AcDbLine
 10
-2342.491929966407
 20
-416.1671142042412
 30
0.0
 11
-2344.057993011344
 21
-412.8371343249656
 31
0.0
  0
LINE
  5
223
330
1F
100
AcDbEntity
  8
0
100
AcDbLine
 10
-2344.057993011344
 20
-412.8371343249656
 30
0.0
 11
-2344.651554379554
 21
-409.0980330506529
 31
0.0
  0
LINE
  5
224
330
1F
100
AcDbEntity
  8
0
100
AcDbLine
 10
2456.290092060638
 20
-419.1593373264378
 30
0.0
 11
2445.837461584897
 21
-379.7671618060321
 31
0.0
  0
LINE
  5
225
330
1F
100
AcDbEntity
  8
0
100
AcDbLine
 10
2445.837461584897
 20
-379.7671618060321
 30
0.0
 11
2451.184694141896
 21
-379.7671618060321
 31
0.0
  0
LINE
  5
226
330
1F
100
AcDbEntity
  8
0
100
AcDbLine
 10
2451.184694141896
 20
-379.7671618060321
 30
0.0
 11
2457.176819067578
 21
-405.5897270687264
 31
0.0
  0
LINE
  5
227
330
1F
100
AcDbEntity
  8
0
100
AcDbLine
 10
2457.176819067578
 20
-405.5897270687264
 30
0.0
 11
2458.84279102001
 21
-413.6508816772678
 31
0.0
  0
LINE
  5
228
330
1F
100
AcDbEntity
  8
0
100
AcDbLine
 10
2458.84279102001
 20
-413.6508816772678
 30
0.0
 11
2460.616245033889
 21
-406.3689720142188
 31
0.0
  0
LINE
  5
229
330
1F
100
AcDbEntity
  8
0
100
AcDbLine
 10
2460.616245033889
 20
-406.3689720142188
 30
0.0
 11
2468.113118819833
 21
-379.7671618060321
 31
0.0
  0
LINE
  5
22A
330
1F
100
AcDbEntity
  8
0
100
AcDbLine
 10
2468.113118819833
 20
-379.7671618060321
 30
0.0
 11
2474.400819414495
 21
-379.7671618060321
 31
0.0
  0
LINE
  5
22B
330
1F
100
AcDbEntity
  8
0
100
AcDbLine
 10
2474.400819414495
 20
-379.7671618060321
 30
0.0
 11
2480.043627640474
 21
-399.7050842044912
 31
0.0
  0
LINE
  5
22C
330
1F
100
AcDbEntity
  8
0
100
AcDbLine
 10
2480.043627640474
 20
-399.7050842044912
 30
0.0
 11
2481.870822685077
 21
-406.8996646926144
 31
0.0
  0
LINE
  5
22D
330
1F
100
AcDbEntity
  8
0
100
AcDbLine
 10
2481.870822685077
 20
-406.8996646926144
 30
0.0
 11
2483.10686639172
 21
-413.6508816772678
 31
0.0
  0
LINE
  5
22E
330
1F
100
AcDbEntity
  8
0
100
AcDbLine
 10
2483.10686639172
 20
-413.6508816772678
 30
0.0
 11
2485.068414013132
 21
-405.0791872768522
 31
0.0
  0
LINE
  5
22F
330
1F
100
AcDbEntity
  8
0
100
AcDbLine
 10
2485.068414013132
 20
-405.0791872768522
 30
0.0
 11
2491.248632546346
 21
-379.7671618060321
 31
0.0
  0
LINE
  5
230
330
1F
100
AcDbEntity
  8
0
100
AcDbLine
 10
2491.248632546346
 20
-379.7671618060321
 30
0.0
 11
2496.488383041898
 21
-379.7671618060321
 31
0.0
  0
LINE
  5
231
330
1F
100
AcDbEntity
  8
0
100
AcDbLine
 10
2496.488383041898
 20
-379.7671618060321
 30
0.0
 11
2485.686435866453
 21
-419.1593373264378
 31
0.0
  0
LINE
  5
232
330
1F
100
AcDbEntity
  8
0
100
AcDbLine
 10
2485.686435866453
 20
-419.1593373264378
 30
0.0
 11
2480.661649493795
 21
-419.1593373264378
 31
0.0
  0
LINE
  5
233
330
1F
100
AcDbEntity
  8
0
100
AcDbLine
 10
2480.661649493795
 20
-419.1593373264378
 30
0.0
 11
2472.358660246998
 21
-389.1449716673019
 31
0.0
  0
LINE
  5
234
330
1F
100
AcDbEntity
  8
0
100
AcDbLine
 10
2472.358660246998
 20
-389.1449716673019
 30
0.0
 11
2471.122616540355
 21
-384.5232430250715
 31
0.0
  0
LINE
  5
235
330
1F
100
AcDbEntity
  8
0
100
AcDbLine
 10
2471.122616540355
 20
-384.5232430250715
 30
0.0
 11
2469.967184379797
 21
-389.1449716673019
 31
0.0
  0
LINE
  5
236
330
1F
100
AcDbEntity
  8
0
100
AcDbLine
 10
2469.967184379797
 20
-389.1449716673019
 30
0.0
 11
2461.610454102276
 21
-419.1593373264378
 31
0.0
  0
LINE
  5
237
330
1F
100
AcDbEntity
  8
0
100
AcDbLine
 10
2461.610454102276
 20
-419.1593373264378
 30
0.0
 11
2456.290092060638
 21
-419.1593373264378
 31
0.0
  0
LINE
  5
238
330
1F
100
AcDbEntity
  8
0
100
AcDbLine
 10
2502.238673329325
 20
-419.1593373264378
 30
0.0
 11
2502.238673329325
 21
-379.7671618060321
 31
0.0
  0
LINE
  5
239
330
1F
100
AcDbEntity
  8
0
100
AcDbLine
 10
2502.238673329325
 20
-379.7671618060321
 30
0.0
 11
2507.451553309515
 21
-379.7671618060321
 31
0.0
  0
LINE
  5
23A
330
1F
100
AcDbEntity
  8
0
100
AcDbLine
 10
2507.451553309515
 20
-379.7671618060321
 30
0.0
 11
2507.451553309515
 21
-419.1593373264378
 31
0.0
  0
LINE
  5
23B
330
1F
100
AcDbEntity
  8
0
100
AcDbLine
 10
2507.451553309515
 20
-419.1593373264378
 30
0.0
 11
2502.238673329325
 21
-419.1593373264378
 31
0.0
  0
LINE
  5
23C
330
1F
100
AcDbEntity
  8
0
100
AcDbLine
 10
2516.587528532529
 20
-419.1593373264378
 30
0.0
 11
2516.587528532529
 21
-379.7671618060321
 31
0.0
  0
LINE
  5
23D
330
1F
100
AcDbEntity
  8
0
100
AcDbLine
 10
2516.587528532529
 20
-379.7671618060321
 30
0.0
 11
2521.934761089528
 21
-379.7671618060321
 31
0.0
  0
LINE
  5
23E
330
1F
100
AcDbEntity
  8
0
100
AcDbLine
 10
2521.934761089528
 20
-379.7671618060321
 30
0.0
 11
2542.625057918117
 21
-410.6951249874693
 31
0.0
  0
LINE
  5
23F
330
1F
100
AcDbEntity
  8
0
100
AcDbLine
 10
2542.625057918117
 20
-410.6951249874693
 30
0.0
 11
2542.625057918117
 21
-379.7671618060321
 31
0.0
  0
LINE
  5
240
330
1F
100
AcDbEntity
  8
0
100
AcDbLine
 10
2542.625057918117
 20
-379.7671618060321
 30
0.0
 11
2547.622973775413
 21
-379.7671618060321
 31
0.0
  0
LINE
  5
241
330
1F
100
AcDbEntity
  8
0
100
AcDbLine
 10
2547.622973775413
 20
-379.7671618060321
 30
0.0
 11
2547.622973775413
 21
-419.1593373264378
 31
0.0
  0
LINE
  5
242
330
1F
100
AcDbEntity
  8
0
100
AcDbLine
 10
2547.622973775413
 20
-419.1593373264378
 30
0.0
 11
2542.275741218414
 21
-419.1593373264378
 31
0.0
  0
LINE
  5
243
330
1F
100
AcDbEntity
  8
0
100
AcDbLine
 10
2542.275741218414
 20
-419.1593373264378
 30
0.0
 11
2521.585444389824
 21
-388.2045036296388
 31
0.0
  0
LINE
  5
244
330
1F
100
AcDbEntity
  8
0
100
AcDbLine
 10
2521.585444389824
 20
-388.2045036296388
 30
0.0
 11
2521.585444389824
 21
-419.1593373264378
 31
0.0
  0
LINE
  5
245
330
1F
100
AcDbEntity
  8
0
100
AcDbLine
 10
2521.585444389824
 20
-419.1593373264378
 30
0.0
 11
2516.587528532529
 21
-419.1593373264378
 31
0.0
  0
LINE
  5
246
330
1F
100
AcDbEntity
  8
0
100
AcDbLine
 10
2556.382761783361
 20
-419.1593373264378
 30
0.0
 11
2556.382761783361
 21
-379.7671618060321
 31
0.0
  0
LINE
  5
247
330
1F
100
AcDbEntity
  8
0
100
AcDbLine
 10
2556.382761783361
 20
-379.7671618060321
 30
0.0
 11
2569.952372041073
 21
-379.7671618060321
 31
0.0
  0
LINE
  5
248
330
1F
100
AcDbEntity
  8
0
100
AcDbLine
 10
2569.952372041073
 20
-379.7671618060321
 30
0.0
 11
2574.003102231865
 21
-379.9082320116815
 31
0.0
  0
LINE
  5
249
330
1F
100
AcDbEntity
  8
0
100
AcDbLine
 10
2574.003102231865
 20
-379.9082320116815
 30
0.0
 11
2576.965576550504
 21
-380.33144262863
 31
0.0
  0
LINE
  5
24A
330
1F
100
AcDbEntity
  8
0
100
AcDbLine
 10
2576.965576550504
 20
-380.33144262863
 30
0.0
 11
2580.102709218995
 21
-381.4264161296235
 31
0.0
  0
LINE
  5
24B
330
1F
100
AcDbEntity
  8
0
100
AcDbLine
 10
2580.102709218995
 20
-381.4264161296235
 30
0.0
 11
2582.742737353291
 21
-383.1528467416195
 31
0.0
  0
LINE
  5
24C
330
1F
100
AcDbEntity
  8
0
100
AcDbLine
 10
2582.742737353291
 20
-383.1528467416195
 30
0.0
 11
2585.466735848095
 21
-386.1522680188809
 31
0.0
  0
LINE
  5
24D
330
1F
100
AcDbEntity
  8
0
100
AcDbLine
 10
2585.466735848095
 20
-386.1522680188809
 30
0.0
 11
2587.404771768565
 21
-389.8839108397516
 31
0.0
  0
LINE
  5
24E
330
1F
100
AcDbEntity
  8
0
100
AcDbLine
 10
2587.404771768565
 20
-389.8839108397516
 30
0.0
 11
2588.563562743543
 21
-394.2738812869865
 31
0.0
  0
LINE
  5
24F
330
1F
100
AcDbEntity
  8
0
100
AcDbLine
 10
2588.563562743543
 20
-394.2738812869865
 30
0.0
 11
2588.949826401869
 21
-399.2482854433405
 31
0.0
  0
LINE
  5
250
330
1F
100
AcDbEntity
  8
0
100
AcDbLine
 10
2588.949826401869
 20
-399.2482854433405
 30
0.0
 11
2588.687838877091
 21
-403.4803916128248
 31
0.0
  0
LINE
  5
251
330
1F
100
AcDbEntity
  8
0
100
AcDbLine
 10
2588.687838877091
 20
-403.4803916128248
 30
0.0
 11
2587.901876302758
 21
-407.2019579904347
 31
0.0
  0
LINE
  5
252
330
1F
100
AcDbEntity
  8
0
100
AcDbLine
 10
2587.901876302758
 20
-407.2019579904347
 30
0.0
 11
2586.706138369158
 21
-410.3693199887075
 31
0.0
  0
LINE
  5
253
330
1F
100
AcDbEntity
  8
0
100
AcDbLine
 10
2586.706138369158
 20
-410.3693199887075
 30
0.0
 11
2585.214824766578
 21
-412.93881302018
 31
0.0
  0
LINE
  5
254
330
1F
100
AcDbEntity
  8
0
100
AcDbLine
 10
2585.214824766578
 20
-412.93881302018
 30
0.0
 11
2583.498470597843
 21
-414.9675369299964
 31
0.0
  0
LINE
  5
255
330
1F
100
AcDbEntity
  8
0
100
AcDbLine
 10
2583.498470597843
 20
-414.9675369299964
 30
0.0
 11
2581.627610965777
 21
-416.5125915633
 31
0.0
  0
LINE
  5
256
330
1F
100
AcDbEntity
  8
0
100
AcDbLine
 10
2581.627610965777
 20
-416.5125915633
 30
0.0
 11
2579.477969736833
 21
-417.657947280597
 31
0.0
  0
LINE
  5
257
330
1F
100
AcDbEntity
  8
0
100
AcDbLine
 10
2579.477969736833
 20
-417.657947280597
 30
0.0
 11
2576.925270777461
 21
-418.4875744423927
 31
0.0
  0
LINE
  5
258
330
1F
100
AcDbEntity
  8
0
100
AcDbLine
 10
2576.925270777461
 20
-418.4875744423927
 30
0.0
 11
2573.966155273242
 21
-418.9913966054266
 31
0.0
  0
LINE
  5
259
330
1F
100
AcDbEntity
  8
0
100
AcDbLine
 10
2573.966155273242
 20
-418.9913966054266
 30
0.0
 11
2570.597264409756
 21
-419.1593373264378
 31
0.0
  0
LINE
  5
25A
330
1F
100
AcDbEntity
  8
0
100
AcDbLine
 10
2570.597264409756
 20
-419.1593373264378
 30
0.0
 11
2556.382761783361
 21
-419.1593373264378
 31
0.0
  0
LINE
  5
25B
330
1F
100
AcDbEntity
  8
0
100
AcDbLine
 10
2561.595641763551
 20
-414.5107381688456
 30
0.0
 11
2570.006113071796
 21
-414.5107381688456
 31
0.0
  0
LINE
  5
25C
330
1F
100
AcDbEntity
  8
0
100
AcDbLine
 10
2570.006113071796
 20
-414.5107381688456
 30
0.0
 11
2573.48248599673
 21
-414.3293621901535
 31
0.0
  0
LINE
  5
25D
330
1F
100
AcDbEntity
  8
0
100
AcDbLine
 10
2573.48248599673
 20
-414.3293621901535
 30
0.0
 11
2576.119155316607
 21
-413.7852342540769
 31
0.0
  0
LINE
  5
25E
330
1F
100
AcDbEntity
  8
0
100
AcDbLine
 10
2576.119155316607
 20
-413.7852342540769
 30
0.0
 11
2578.110932267801
 21
-412.9119425048182
 31
0.0
  0
LINE
  5
25F
330
1F
100
AcDbEntity
  8
0
100
AcDbLine
 10
2578.110932267801
 20
-412.9119425048182
 30
0.0
 11
2579.652628086684
 21
-411.7430750865797
 31
0.0
  0
LINE
  5
260
330
1F
100
AcDbEntity
  8
0
100
AcDbLine
 10
2579.652628086684
 20
-411.7430750865797
 30
0.0
 11
2581.301805967015
 21
-409.5699221566937
 31
0.0
  0
LINE
  5
261
330
1F
100
AcDbEntity
  8
0
100
AcDbLine
 10
2581.301805967015
 20
-409.5699221566937
 30
0.0
 11
2582.541208488078
 21
-406.758594486965
 31
0.0
  0
LINE
  5
262
330
1F
100
AcDbEntity
  8
0
100
AcDbLine
 10
2582.541208488078
 20
-406.758594486965
 30
0.0
 11
2583.31709461915
 21
-403.2956568197123
 31
0.0
  0
LINE
  5
263
330
1F
100
AcDbEntity
  8
0
100
AcDbLine
 10
2583.31709461915
 20
-403.2956568197123
 30
0.0
 11
2583.575723329508
 21
-399.1676738972551
 31
0.0
  0
LINE
  5
264
330
1F
100
AcDbEntity
  8
0
100
AcDbLine
 10
2583.575723329508
 20
-399.1676738972551
 30
0.0
 11
2583.068542352054
 21
-393.7028828355481
 31
0.0
  0
LINE
  5
265
330
1F
100
AcDbEntity
  8
0
100
AcDbLine
 10
2583.068542352054
 20
-393.7028828355481
 30
0.0
 11
2582.434566130236
 21
-391.5070579083256
 31
0.0
  0
LINE
  5
266
330
1F
100
AcDbEntity
  8
0
100
AcDbLine
 10
2582.434566130236
 20
-391.5070579083256
 30
0.0
 11
2581.546999419691
 21
-389.6689467168571
 31
0.0
  0
LINE
  5
267
330
1F
100
AcDbEntity
  8
0
100
AcDbLine
 10
2581.546999419691
 20
-389.6689467168571
 30
0.0
 11
2579.29995257256
 21
-386.897924820171
 31
0.0
  0
LINE
  5
268
330
1F
100
AcDbEntity
  8
0
100
AcDbLine
 10
2579.29995257256
 20
-386.897924820171
 30
0.0
 11
2576.6162598508
 21
-385.2218764244785
 31
0.0
  0
LINE
  5
269
330
1F
100
AcDbEntity
  8
0
100
AcDbLine
 10
2576.6162598508
 20
-385.2218764244785
 30
0.0
 11
2573.882184912737
 21
-384.6172898288378
 31
0.0
  0
LINE
  5
26A
330
1F
100
AcDbEntity
  8
0
100
AcDbLine
 10
2573.882184912737
 20
-384.6172898288378
 30
0.0
 11
2569.871760494987
 21
-384.4157609636243
 31
0.0
  0
LINE
  5
26B
330
1F
100
AcDbEntity
  8
0
100
AcDbLine
 10
2569.871760494987
 20
-384.4157609636243
 30
0.0
 11
2561.595641763551
 21
-384.4157609636243
 31
0.0
  0
LINE
  5
26C
330
1F
100
AcDbEntity
  8
0
100
AcDbLine
 10
2561.595641763551
 20
-384.4157609636243
 30
0.0
 11
2561.595641763551
 21
-414.5107381688456
 31
0.0
  0
LINE
  5
26D
330
1F
100
AcDbEntity
  8
0
100
AcDbLine
 10
2594.538893597124
 20
-399.9737893581093
 30
0.0
 11
2594.868057410306
 21
-395.3361063473828
 31
0.0
  0
LINE
  5
26E
330
1F
100
AcDbEntity
  8
0
100
AcDbLine
 10
2594.868057410306
 20
-395.3361063473828
 30
0.0
 11
2595.855548849853
 21
-391.230795422262
 31
0.0
  0
LINE
  5
26F
330
1F
100
AcDbEntity
  8
0
100
AcDbLine
 10
2595.855548849853
 20
-391.230795422262
 30
0.0
 11
2597.501367915763
 21
-387.6578565827471
 31
0.0
  0
LINE
  5
270
330
1F
100
AcDbEntity
  8
0
100
AcDbLine
 10
2597.501367915763
 20
-387.6578565827471
 30
0.0
 11
2599.805514608038
 21
-384.6172898288378
 31
0.0
  0
LINE
  5
271
330
1F
100
AcDbEntity
  8
0
100
AcDbLine
 10
2599.805514608038
 20
-384.6172898288378
 30
0.0
 11
2602.630277535447
 21
-382.1897067066198
 31
0.0
  0
LINE
  5
272
330
1F
100
AcDbEntity
  8
0
100
AcDbLine
 10
2602.630277535447
 20
-382.1897067066198
 30
0.0
 11
2605.837945306763
 21
-380.4557187621784
 31
0.0
  0
LINE
  5
273
330
1F
100
AcDbEntity
  8
0
100
AcDbLine
 10
2605.837945306763
 20
-380.4557187621784
 30
0.0
 11
2609.428517921984
 21
-379.4153259955135
 31
0.0
  0
LINE
  5
274
330
1F
100
AcDbEntity
  8
0
100
AcDbLine
 10
2609.428517921984
 20
-379.4153259955135
 30
0.0
 11
2613.401995381111
 21
-379.0685284066251
 31
0.0
  0
LINE
  5
275
330
1F
100
AcDbEntity
  8
0
100
AcDbLine
 10
2613.401995381111
 20
-379.0685284066251
 30
0.0
 11
2616.06217640193
 21
-379.2314309060061
 31
0.0
  0
LINE
  5
276
330
1F
100
AcDbEntity
  8
0
100
AcDbLine
 10
2616.06217640193
 20
-379.2314309060061
 30
0.0
 11
2618.588004845939
 21
-379.7201384041489
 31
0.0
  0
LINE
  5
277
330
1F
100
AcDbEntity
  8
0
100
AcDbLine
 10
2618.588004845939
 20
-379.7201384041489
 30
0.0
 11
2620.97948071314
 21
-380.5346509010536
 31
0.0
  0
LINE
  5
278
330
1F
100
AcDbEntity
  8
0
100
AcDbLine
 10
2620.97948071314
 20
-380.5346509010536
 30
0.0
 11
2623.236604003532
 21
-381.6749683967203
 31
0.0
  0
LINE
  5
279
330
1F
100
AcDbEntity
  8
0
100
AcDbLine
 10
2623.236604003532
 20
-381.6749683967203
 30
0.0
 11
2625.296396946735
 21
-383.1066630433414
 31
0.0
  0
LINE
  5
27A
330
1F
100
AcDbEntity
  8
0
100
AcDbLine
 10
2625.296396946735
 20
-383.1066630433414
 30
0.0
 11
2627.095881772371
 21
-384.7953069931098
 31
0.0
  0
LINE
  5
27B
330
1F
100
AcDbEntity
  8
0
100
AcDbLine
 10
2627.095881772371
 20
-384.7953069931098
 30
0.0
 11
2628.635058480439
 21
-386.7409002460254
 31
0.0
  0
LINE
  5
27C
330
1F
100
AcDbEntity
  8
0
100
AcDbLine
 10
2628.635058480439
 20
-386.7409002460254
 30
0.0
 11
2629.91392707094
 21
-388.9434428020884
 31
0.0
  0
LINE
  5
27D
330
1F
100
AcDbEntity
  8
0
100
AcDbLine
 10
2629.91392707094
 20
-388.9434428020884
 30
0.0
 11
2630.919052286192
 21
-391.3525524449952
 31
0.0
  0
LINE
  5
27E
330
1F
100
AcDbEntity
  8
0
100
AcDbLine
 10
2630.919052286192
 20
-391.3525524449952
 30
0.0
 11
2631.636998868516
 21
-393.9178469584425
 31
0.0
  0
LINE
  5
27F
330
1F
100
AcDbEntity
  8
0
100
AcDbLine
 10
2631.636998868516
 20
-393.9178469584425
 30
0.0
 11
2632.06776681791
 21
-396.6393263424303
 31
0.0
  0
LINE
  5
280
330
1F
100
AcDbEntity
  8
0
100
AcDbLine
 10
2632.06776681791
 20
-396.6393263424303
 30
0.0
 11
2632.211356134374
 21
-399.5169905969586
 31
0.0
  0
LINE
  5
281
330
1F
100
AcDbEntity
  8
0
100
AcDbLine
 10
2632.211356134374
 20
-399.5169905969586
 30
0.0
 11
2632.060209485464
 21
-402.4341209209245
 31
0.0
  0
LINE
  5
282
330
1F
100
AcDbEntity
  8
0
100
AcDbLine
 10
2632.060209485464
 20
-402.4341209209245
 30
0.0
 11
2631.606769538734
 21
-405.1933869671398
 31
0.0
  0
LINE
  5
283
330
1F
100
AcDbEntity
  8
0
100
AcDbLine
 10
2631.606769538734
 20
-405.1933869671398
 30
0.0
 11
2630.851036294183
 21
-407.7947887356045
 31
0.0
  0
LINE
  5
284
330
1F
100
AcDbEntity
  8
0
100
AcDbLine
 10
2630.851036294183
 20
-407.7947887356045
 30
0.0
 11
2629.793009751812
 21
-410.2383262263187
 31
0.0
  0
LINE
  5
285
330
1F
100
AcDbEntity
  8
0
100
AcDbLine
 10
2629.793009751812
 20
-410.2383262263187
 30
0.0
 11
2628.457881019772
 21
-412.4593422616928
 31
0.0
  0
LINE
  5
286
330
1F
100
AcDbEntity
  8
0
100
AcDbLine
 10
2628.457881019772
 20
-412.4593422616928
 30
0.0
 11
2626.870841206216
 21
-414.3931796641377
 31
0.0
  0
LINE
  5
287
330
1F
100
AcDbEntity
  8
0
100
AcDbLine
 10
2626.870841206216
 20
-414.3931796641377
 30
0.0
 11
2625.031890311142
 21
-416.0398384336534
 31
0.0
  0
LINE
  5
288
330
1F
100
AcDbEntity
  8
0
100
AcDbLine
 10
2625.031890311142
 20
-416.0398384336534
 30
0.0
 11
2622.941028334551
 21
-417.3993185702396
 31
0.0
  0
LINE
  5
289
330
1F
100
AcDbEntity
  8
0
100
AcDbLine
 10
2622.941028334551
 20
-417.3993185702396
 30
0.0
 11
2620.68054622974
 21
-418.4632230378461
 31
0.0
  0
LINE
  5
28A
330
1F
100
AcDbEntity
  8
0
100
AcDbLine
 10
2620.68054622974
 20
-418.4632230378461
 30
0.0
 11
2618.332734950002
 21
-419.2231548004222
 31
0.0
  0
LINE
  5
28B
330
1F
100
AcDbEntity
  8
0
100
AcDbLine
 10
2618.332734950002
 20
-419.2231548004222
 30
0.0
 11
2615.897594495339
 21
-419.6791138579678
 31
0.0
  0
LINE
  5
28C
330
1F
100
AcDbEntity
  8
0
100
AcDbLine
 10
2615.897594495339
 20
-419.6791138579678
 30
0.0
 11
2613.375124865749
 21
-419.831100210483
 31
0.0
  0
LINE
  5
28D
330
1F
100
AcDbEntity
  8
0
100
AcDbLine
 10
2613.375124865749
 20
-419.831100210483
 30
0.0
 11
2610.667920443047
 21
-419.6631594894717
 31
0.0
  0
LINE
  5
28E
330
1F
100
AcDbEntity
  8
0
100
AcDbLine
 10
2610.667920443047
 20
-419.6631594894717
 30
0.0
 11
2608.108503854835
 21
-419.1593373264378
 31
0.0
  0
LINE
  5
28F
330
1F
100
AcDbEntity
  8
0
100
AcDbLine
 10
2608.108503854835
 20
-419.1593373264378
 30
0.0
 11
2605.696875101114
 21
-418.3196337213814
 31
0.0
  0
LINE
  5
290
330
1F
100
AcDbEntity
  8
0
100
AcDbLine
 10
2605.696875101114
 20
-418.3196337213814
 30
0.0
 11
2603.433034181881
 21
-417.1440486743025
 31
0.0
  0
LINE
  5
291
330
1F
100
AcDbEntity
  8
0
100
AcDbLine
 10
2603.433034181881
 20
-417.1440486743025
 30
0.0
 11
2601.375760349493
 21
-415.677926179874
 31
0.0
  0
LINE
  5
292
330
1F
100
AcDbEntity
  8
0
100
AcDbLine
 10
2601.375760349493
 20
-415.677926179874
 30
0.0
 11
2599.583832856303
 21
-413.9666102327691
 31
0.0
  0
LINE
  5
293
330
1F
100
AcDbEntity
  8
0
100
AcDbLine
 10
2599.583832856303
 20
-413.9666102327691
 30
0.0
 11
2598.05725170231
 21
-412.0101008329877
 31
0.0
  0
LINE
  5
294
330
1F
100
AcDbEntity
  8
0
100
AcDbLine
 10
2598.05725170231
 20
-412.0101008329877
 30
0.0
 11
2596.796016887516
 21
-409.8083979805298
 31
0.0
  0
LINE
  5
295
330
1F
100
AcDbEntity
  8
0
100
AcDbLine
 10
2596.796016887516
 20
-409.8083979805298
 30
0.0
 11
2595.103174419722
 21
-405.0254462461285
 31
0.0
  0
LINE
  5
296
330
1F
100
AcDbEntity
  8
0
100
AcDbLine
 10
2595.103174419722
 20
-405.0254462461285
 30
0.0
 11
2594.538893597124
 21
-399.9737893581093
 31
0.0
  0
LINE
  5
297
330
1F
100
AcDbEntity
  8
0
100
AcDbLine
 10
2599.912996669485
 20
-400.0544009041947
 30
0.0
 11
2600.152312196926
 21
-403.4258108784961
 31
0.0
  0
LINE
  5
298
330
1F
100
AcDbEntity
  8
0
100
AcDbLine
 10
2600.152312196926
 20
-403.4258108784961
 30
0.0
 11
2600.870258779249
 21
-406.4193542305222
 31
0.0
  0
LINE
  5
299
330
1F
100
AcDbEntity
  8
0
100
AcDbLine
 10
2600.870258779249
 20
-406.4193542305222
 30
0.0
 11
2602.066836416454
 21
-409.0350309602729
 31
0.0
  0
LINE
  5
29A
330
1F
100
AcDbEntity
  8
0
100
AcDbLine
 10
2602.066836416454
 20
-409.0350309602729
 30
0.0
 11
2603.742045108542
 21
-411.2728410677481
 31
0.0
  0
LINE
  5
29B
330
1F
100
AcDbEntity
  8
0
100
AcDbLine
 10
2603.742045108542
 20
-411.2728410677481
 30
0.0
 11
2605.778326350804
 21
-413.0656082645435
 31
0.0
  0
LINE
  5
29C
330
1F
100
AcDbEntity
  8
0
100
AcDbLine
 10
2605.778326350804
 20
-413.0656082645435
 30
0.0
 11
2608.058121638532
 21
-414.3461562622546
 31
0.0
  0
LINE
  5
29D
330
1F
100
AcDbEntity
  8
0
100
AcDbLine
 10
2608.058121638532
 20
-414.3461562622546
 30
0.0
 11
2610.581430971727
 21
-415.1144850608812
 31
0.0
  0
LINE
  5
29E
330
1F
100
AcDbEntity
  8
0
100
AcDbLine
 10
2610.581430971727
 20
-415.1144850608812
 30
0.0
 11
2613.348254350387
 21
-415.3705946604234
 31
0.0
  0
LINE
  5
29F
330
1F
100
AcDbEntity
  8
0
100
AcDbLine
 10
2613.348254350387
 20
-415.3705946604234
 30
0.0
 11
2616.160421723721
 21
-415.111965950066
 31
0.0
  0
LINE
  5
2A0
330
1F
100
AcDbEntity
  8
0
100
AcDbLine
 10
2616.160421723721
 20
-415.111965950066
 30
0.0
 11
2618.712280979487
 21
-414.3360798189939
 31
0.0
  0
LINE
  5
2A1
330
1F
100
AcDbEntity
  8
0
100
AcDbLine
 10
2618.712280979487
 20
-414.3360798189939
 30
0.0
 11
2621.003832117687
 21
-413.042936267207
 31
0.0
  0
LINE
  5
2A2
330
1F
100
AcDbEntity
  8
0
100
AcDbLine
 10
2621.003832117687
 20
-413.042936267207
 30
0.0
 11
2623.035075138318
 21
-411.2325352947054
 31
0.0
  0
LINE
  5
2A3
330
1F
100
AcDbEntity
  8
0
100
AcDbLine
 10
2623.035075138318
 20
-411.2325352947054
 30
0.0
 11
2624.698527979935
 21
-408.946862081742
 31
0.0
  0
LINE
  5
2A4
330
1F
100
AcDbEntity
  8
0
100
AcDbLine
 10
2624.698527979935
 20
-408.946862081742
 30
0.0
 11
2625.886708581089
 21
-406.2279018085693
 31
0.0
  0
LINE
  5
2A5
330
1F
100
AcDbEntity
  8
0
100
AcDbLine
 10
2625.886708581089
 20
-406.2279018085693
 30
0.0
 11
2626.599616941783
 21
-403.0756544751876
 31
0.0
  0
LINE
  5
2A6
330
1F
100
AcDbEntity
  8
0
100
AcDbLine
 10
2626.599616941783
 20
-403.0756544751876
 30
0.0
 11
2626.837253062014
 21
-399.4901200815968
 31
0.0
  0
LINE
  5
2A7
330
1F
100
AcDbEntity
  8
0
100
AcDbLine
 10
2626.837253062014
 20
-399.4901200815968
 30
0.0
 11
2626.430836517166
 21
-394.9859499440743
 31
0.0
  0
LINE
  5
2A8
330
1F
100
AcDbEntity
  8
0
100
AcDbLine
 10
2626.430836517166
 20
-394.9859499440743
 30
0.0
 11
2625.211586882624
 21
-391.0930840310328
 31
0.0
  0
LINE
  5
2A9
330
1F
100
AcDbEntity
  8
0
100
AcDbLine
 10
2625.211586882624
 20
-391.0930840310328
 30
0.0
 11
2623.20973348817
 21
-387.9089279606589
 31
0.0
  0
LINE
  5
2AA
330
1F
100
AcDbEntity
  8
0
100
AcDbLine
 10
2623.20973348817
 20
-387.9089279606589
 30
0.0
 11
2620.455505663585
 21
-385.5308873511392
 31
0.0
  0
LINE
  5
2AB
330
1F
100
AcDbEntity
  8
0
100
AcDbLine
 10
2620.455505663585
 20
-385.5308873511392
 30
0.0
 11
2617.133638201982
 21
-384.0496501918197
 31
0.0
  0
LINE
  5
2AC
330
1F
100
AcDbEntity
  8
0
100
AcDbLine
 10
2617.133638201982
 20
-384.0496501918197
 30
0.0
 11
2613.428865896473
 21
-383.5559044720466
 31
0.0
  0
LINE
  5
2AD
330
1F
100
AcDbEntity
  8
0
100
AcDbLine
 10
2613.428865896473
 20
-383.5559044720466
 30
0.0
 11
2610.757768728789
 21
-383.7935405922775
 31
0.0
  0
LINE
  5
2AE
330
1F
100
AcDbEntity
  8
0
100
AcDbLine
 10
2610.757768728789
 20
-383.7935405922775
 30
0.0
 11
2608.279803390267
 21
-384.5064489529704
 31
0.0
  0
LINE
  5
2AF
330
1F
100
AcDbEntity
  8
0
100
AcDbLine
 10
2608.279803390267
 20
-384.5064489529704
 30
0.0
 11
2605.994969880909
 21
-385.6946295541252
 31
0.0
  0
LINE
  5
2B0
330
1F
100
AcDbEntity
  8
0
100
AcDbLine
 10
2605.994969880909
 20
-385.6946295541252
 30
0.0
 11
2603.903268200713
 21
-387.3580823957419
 31
0.0
  0
LINE
  5
2B1
330
1F
100
AcDbEntity
  8
0
100
AcDbLine
 10
2603.903268200713
 20
-387.3580823957419
 30
0.0
 11
2602.157524405801
 21
-389.577419023906
 31
0.0
  0
LINE
  5
2B2
330
1F
100
AcDbEntity
  8
0
100
AcDbLine
 10
2602.157524405801
 20
-389.577419023906
 30
0.0
 11
2600.910564552292
 21
-392.4332509847028
 31
0.0
  0
LINE
  5
2B3
330
1F
100
AcDbEntity
  8
0
100
AcDbLine
 10
2600.910564552292
 20
-392.4332509847028
 30
0.0
 11
2600.162388640187
 21
-395.9255782781324
 31
0.0
  0
LINE
  5
2B4
330
1F
100
AcDbEntity
  8
0
100
AcDbLine
 10
2600.162388640187
 20
-395.9255782781324
 30
0.0
 11
2599.912996669485
 21
-400.0544009041947
 31
0.0
  0
LINE
  5
2B5
330
1F
100
AcDbEntity
  8
0
100
AcDbLine
 10
2645.807836907448
 20
-419.1593373264378
 30
0.0
 11
2635.355206431705
 21
-379.7671618060321
 31
0.0
  0
LINE
  5
2B6
330
1F
100
AcDbEntity
  8
0
100
AcDbLine
 10
2635.355206431705
 20
-379.7671618060321
 30
0.0
 11
2640.702438988705
 21
-379.7671618060321
 31
0.0
  0
LINE
  5
2B7
330
1F
100
AcDbEntity
  8
0
100
AcDbLine
 10
2640.702438988705
 20
-379.7671618060321
 30
0.0
 11
2646.694563914387
 21
-405.5897270687264
 31
0.0
  0
LINE
  5
2B8
330
1F
100
AcDbEntity
  8
0
100
AcDbLine
 10
2646.694563914387
 20
-405.5897270687264
 30
0.0
 11
2648.360535866819
 21
-413.6508816772678
 31
0.0
  0
LINE
  5
2B9
330
1F
100
AcDbEntity
  8
0
100
AcDbLine
 10
2648.360535866819
 20
-413.6508816772678
 30
0.0
 11
2650.133989880698
 21
-406.3689720142188
 31
0.0
  0
LINE
  5
2BA
330
1F
100
AcDbEntity
  8
0
100
AcDbLine
 10
2650.133989880698
 20
-406.3689720142188
 30
0.0
 11
2657.630863666642
 21
-379.7671618060321
 31
0.0
  0
LINE
  5
2BB
330
1F
100
AcDbEntity
  8
0
100
AcDbLine
 10
2657.630863666642
 20
-379.7671618060321
 30
0.0
 11
2663.918564261304
 21
-379.7671618060321
 31
0.0
  0
LINE
  5
2BC
330
1F
100
AcDbEntity
  8
0
100
AcDbLine
 10
2663.918564261304
 20
-379.7671618060321
 30
0.0
 11
2669.561372487283
 21
-399.7050842044912
 31
0.0
  0
LINE
  5
2BD
330
1F
100
AcDbEntity
  8
0
100
AcDbLine
 10
2669.561372487283
 20
-399.7050842044912
 30
0.0
 11
2671.388567531886
 21
-406.8996646926144
 31
0.0
  0
LINE
  5
2BE
330
1F
100
AcDbEntity
  8
0
100
AcDbLine
 10
2671.388567531886
 20
-406.8996646926144
 30
0.0
 11
2672.624611238529
 21
-413.6508816772678
 31
0.0
  0
LINE
  5
2BF
330
1F
100
AcDbEntity
  8
0
100
AcDbLine
 10
2672.624611238529
 20
-413.6508816772678
 30
0.0
 11
2674.58615885994
 21
-405.0791872768522
 31
0.0
  0
LINE
  5
2C0
330
1F
100
AcDbEntity
  8
0
100
AcDbLine
 10
2674.58615885994
 20
-405.0791872768522
 30
0.0
 11
2680.766377393155
 21
-379.7671618060321
 31
0.0
  0
LINE
  5
2C1
330
1F
100
AcDbEntity
  8
0
100
AcDbLine
 10
2680.766377393155
 20
-379.7671618060321
 30
0.0
 11
2686.006127888707
 21
-379.7671618060321
 31
0.0
  0
LINE
  5
2C2
330
1F
100
AcDbEntity
  8
0
100
AcDbLine
 10
2686.006127888707
 20
-379.7671618060321
 30
0.0
 11
2675.204180713262
 21
-419.1593373264378
 31
0.0
  0
LINE
  5
2C3
330
1F
100
AcDbEntity
  8
0
100
AcDbLine
 10
2675.204180713262
 20
-419.1593373264378
 30
0.0
 11
2670.179394340605
 21
-419.1593373264378
 31
0.0
  0
LINE
  5
2C4
330
1F
100
AcDbEntity
  8
0
100
AcDbLine
 10
2670.179394340605
 20
-419.1593373264378
 30
0.0
 11
2661.876405093807
 21
-389.1449716673019
 31
0.0
  0
LINE
  5
2C5
330
1F
100
AcDbEntity
  8
0
100
AcDbLine
 10
2661.876405093807
 20
-389.1449716673019
 30
0.0
 11
2660.640361387163
 21
-384.5232430250715
 31
0.0
  0
LINE
  5
2C6
330
1F
100
AcDbEntity
  8
0
100
AcDbLine
 10
2660.640361387163
 20
-384.5232430250715
 30
0.0
 11
2659.484929226606
 21
-389.1449716673019
 31
0.0
  0
LINE
  5
2C7
330
1F
100
AcDbEntity
  8
0
100
AcDbLine
 10
2659.484929226606
 20
-389.1449716673019
 30
0.0
 11
2651.128198949085
 21
-419.1593373264378
 31
0.0
  0
LINE
  5
2C8
330
1F
100
AcDbEntity
  8
0
100
AcDbLine
 10
2651.128198949085
 20
-419.1593373264378
 30
0.0
 11
2645.807836907448
 21
-419.1593373264378
 31
0.0
  0
LINE
  5
2C9
330
1F
100
AcDbEntity
  8
0
100
AcDbLine
 10
2689.096237155315
 20
-406.5033245910278
 30
0.0
 11
2694.013541466525
 21
-406.0733963452389
 31
0.0
  0
LINE
  5
2CA
330
1F
100
AcDbEntity
  8
0
100
AcDbLine
 10
2694.013541466525
 20
-406.0733963452389
 30
0.0
 11
2694.594616361224
 21
-408.7638066958396
 31
0.0
  0
LINE
  5
2CB
330
1F
100
AcDbEntity
  8
0
100
AcDbLine
 10
2694.594616361224
 20
-408.7638066958396
 30
0.0
 11
2695.639207645914
 21
-410.9235243680447
 31
0.0
  0
LINE
  5
2CC
330
1F
100
AcDbEntity
  8
0
100
AcDbLine
 10
2695.639207645914
 20
-410.9235243680447
 30
0.0
 11
2697.268232639724
 21
-412.6365197223598
 31
0.0
  0
LINE
  5
2CD
330
1F
100
AcDbEntity
  8
0
100
AcDbLine
 10
2697.268232639724
 20
-412.6365197223598
 30
0.0
 11
2699.602608661781
 21
-413.9867631192905
 31
0.0
  0
LINE
  5
2CE
330
1F
100
AcDbEntity
  8
0
100
AcDbLine
 10
2699.602608661781
 20
-413.9867631192905
 30
0.0
 11
2702.457600918972
 21
-414.8634136829693
 31
0.0
  0
LINE
  5
2CF
330
1F
100
AcDbEntity
  8
0
100
AcDbLine
 10
2702.457600918972
 20
-414.8634136829693
 30
0.0
 11
2705.648474618187
 21
-415.155630537529
 31
0.0
  0
LINE
  5
2D0
330
1F
100
AcDbEntity
  8
0
100
AcDbLine
 10
2705.648474618187
 20
-415.155630537529
 30
0.0
 11
2708.456443473495
 21
-414.9339487857941
 31
0.0
  0
LINE
  5
2D1
330
1F
100
AcDbEntity
  8
0
100
AcDbLine
 10
2708.456443473495
 20
-414.9339487857941
 30
0.0
 11
2710.915095629101
 21
-414.2689035305894
 31
0.0
  0
LINE
  5
2D2
330
1F
100
AcDbEntity
  8
0
100
AcDbLine
 10
2710.915095629101
 20
-414.2689035305894
 30
0.0
 11
2712.906872580294
 21
-413.2175946170588
 31
0.0
  0
LINE
  5
2D3
330
1F
100
AcDbEntity
  8
0
100
AcDbLine
 10
2712.906872580294
 20
-413.2175946170588
 30
0.0
 11
2714.314215822369
 21
-411.8371218903461
 31
0.0
  0
LINE
  5
2D4
330
1F
100
AcDbEntity
  8
0
100
AcDbLine
 10
2714.314215822369
 20
-411.8371218903461
 30
0.0
 11
2715.150560613005
 21
-410.2215321542175
 31
0.0
  0
LINE
  5
2D5
330
1F
100
AcDbEntity
  8
0
100
AcDbLine
 10
2715.150560613005
 20
-410.2215321542175
 30
0.0
 11
2715.429342209884
 21
-408.4648722124396
 31
0.0
  0
LINE
  5
2D6
330
1F
100
AcDbEntity
  8
0
100
AcDbLine
 10
2715.429342209884
 20
-408.4648722124396
 30
0.0
 11
2715.160637056266
 21
-406.7283651571829
 31
0.0
  0
LINE
  5
2D7
330
1F
100
AcDbEntity
  8
0
100
AcDbLine
 10
2715.160637056266
 20
-406.7283651571829
 30
0.0
 11
2714.354521595411
 21
-405.2269751113421
 31
0.0
  0
LINE
  5
2D8
330
1F
100
AcDbEntity
  8
0
100
AcDbLine
 10
2714.354521595411
 20
-405.2269751113421
 30
0.0
 11
2712.930384281236
 21
-403.9539844460766
 31
0.0
  0
LINE
  5
2D9
330
1F
100
AcDbEntity
  8
0
100
AcDbLine
 10
2712.930384281236
 20
-403.9539844460766
 30
0.0
 11
2710.807613567653
 21
-402.902675532546
 31
0.0
  0
LINE
  5
2DA
330
1F
100
AcDbEntity
  8
0
100
AcDbLine
 10
2699.179398044832
 20
-399.7151606477519
 30
0.0
 11
2696.190053210832
 21
-398.5227815285718
 31
0.0
  0
LINE
  5
2DB
330
1F
100
AcDbEntity
  8
0
100
AcDbLine
 10
2696.190053210832
 20
-398.5227815285718
 30
0.0
 11
2693.728042240806
 21
-396.8668860194006
 31
0.0
  0
LINE
  5
2DC
330
1F
100
AcDbEntity
  8
0
100
AcDbLine
 10
2693.728042240806
 20
-396.8668860194006
 30
0.0
 11
2691.984817556709
 21
-394.8549561816855
 31
0.0
  0
LINE
  5
2DD
330
1F
100
AcDbEntity
  8
0
100
AcDbLine
 10
2691.984817556709
 20
-394.8549561816855
 30
0.0
 11
2690.946943900859
 21
-392.5340154173095
 31
0.0
  0
LINE
  5
2DE
330
1F
100
AcDbEntity
  8
0
100
AcDbLine
 10
2690.946943900859
 20
-392.5340154173095
 30
0.0
 11
2690.600986015576
 21
-389.9510871281561
 31
0.0
  0
LINE
  5
2DF
330
1F
100
AcDbEntity
  8
0
100
AcDbLine
 10
2690.600986015576
 20
-389.9510871281561
 30
0.0
 11
2691.024196632525
 21
-387.0658655411823
 31
0.0
  0
LINE
  5
2E0
330
1F
100
AcDbEntity
  8
0
100
AcDbLine
 10
2691.024196632525
 20
-387.0658655411823
 30
0.0
 11
2692.293828483369
 21
-384.3754551905816
 31
0.0
  0
LINE
  5
2E1
330
1F
100
AcDbEntity
  8
0
100
AcDbLine
 10
2692.293828483369
 20
-384.3754551905816
 30
0.0
 11
2694.376293423909
 21
-382.0948201992484
 31
0.0
  0
LINE
  5
2E2
330
1F
100
AcDbEntity
  8
0
100
AcDbLine
 10
2694.376293423909
 20
-382.0948201992484
 30
0.0
 11
2697.238003309942
 21
-380.4389246900772
 31
0.0
  0
LINE
  5
2E3
330
1F
100
AcDbEntity
  8
0
100
AcDbLine
 10
2697.238003309942
 20
-380.4389246900772
 30
0.0
 11
2700.670711647412
 21
-379.4312803640096
 31
0.0
  0
LINE
  5
2E4
330
1F
100
AcDbEntity
  8
0
100
AcDbLine
 10
2700.670711647412
 20
-379.4312803640096
 30
0.0
 11
2704.466171942267
 21
-379.095398921987
 31
0.0
  0
LINE
  5
2E5
330
1F
100
AcDbEntity
  8
0
100
AcDbLine
 10
2704.466171942267
 20
-379.095398921987
 30
0.0
 11
2708.587437235884
 21
-379.4480744361106
 31
0.0
  0
LINE
  5
2E6
330
1F
100
AcDbEntity
  8
0
100
AcDbLine
 10
2708.587437235884
 20
-379.4480744361106
 30
0.0
 11
2712.191445108786
 21
-380.5061009784817
 31
0.0
  0
LINE
  5
2E7
330
1F
100
AcDbEntity
  8
0
100
AcDbLine
 10
2712.191445108786
 20
-380.5061009784817
 30
0.0
 11
2715.150560613005
 21
-382.2493256625788
 31
0.0
  0
LINE
  5
2E8
330
1F
100
AcDbEntity
  8
0
100
AcDbLine
 10
2715.150560613005
 20
-382.2493256625788
 30
0.0
 11
2717.337148800572
 21
-384.6575956018805
 31
0.0
  0
LINE
  5
2E9
330
1F
100
AcDbEntity
  8
0
100
AcDbLine
 10
2717.337148800572
 20
-384.6575956018805
 30
0.0
 11
2718.720980341704
 21
-387.5797641474768
 31
0.0
  0
LINE
  5
2EA
330
1F
100
AcDbEntity
  8
0
100
AcDbLine
 10
2718.720980341704
 20
-387.5797641474768
 30
0.0
 11
2719.271825906622
 21
-390.8646846504574
 31
0.0
  0
LINE
  5
2EB
330
1F
100
AcDbEntity
  8
0
100
AcDbLine
 10
2719.271825906622
 20
-390.8646846504574
 30
0.0
 11
2714.273910049326
 21
-391.2408718655227
 31
0.0
  0
LINE
  5
2EC
330
1F
100
AcDbEntity
  8
0
100
AcDbLine
 10
2714.273910049326
 20
-391.2408718655227
 30
0.0
 11
2713.390541856807
 21
-387.9626689913825
 31
0.0
  0
LINE
  5
2ED
330
1F
100
AcDbEntity
  8
0
100
AcDbLine
 10
2713.390541856807
 20
-387.9626689913825
 30
0.0
 11
2712.588624913978
 21
-386.6661666251754
 31
0.0
  0
LINE
  5
2EE
330
1F
100
AcDbEntity
  8
0
100
AcDbLine
 10
2712.588624913978
 20
-386.6661666251754
 30
0.0
 11
2711.546552740103
 21
-385.5980636395437
 31
0.0
  0
LINE
  5
2EF
330
1F
100
AcDbEntity
  8
0
100
AcDbLine
 10
2711.546552740103
 20
-385.5980636395437
 30
0.0
 11
2710.245851855871
 21
-384.7633982561176
 31
0.0
  0
LINE
  5
2F0
330
1F
100
AcDbEntity
  8
0
100
AcDbLine
 10
2710.245851855871
 20
-384.7633982561176
 30
0.0
 11
2708.668048781969
 21
-384.1672086965276
 31
0.0
  0
LINE
  5
2F1
330
1F
100
AcDbEntity
  8
0
100
AcDbLine
 10
2708.668048781969
 20
-384.1672086965276
 30
0.0
 11
2704.681136065162
 21
-383.6902570488556
 31
0.0
  0
LINE
  5
2F2
330
1F
100
AcDbEntity
  8
0
100
AcDbLine
 10
2704.681136065162
 20
-383.6902570488556
 30
0.0
 11
2700.593458915747
 21
-384.1235441090647
 31
0.0
  0
LINE
  5
2F3
330
1F
100
AcDbEntity
  8
0
100
AcDbLine
 10
2700.593458915747
 20
-384.1235441090647
 30
0.0
 11
2699.030770506737
 21
-384.6651529343261
 31
0.0
  0
LINE
  5
2F4
330
1F
100
AcDbEntity
  8
0
100
AcDbLine
 10
2699.030770506737
 20
-384.6651529343261
 30
0.0
 11
2697.788848874859
 21
-385.423405289692
 31
0.0
  0
LINE
  5
2F5
330
1F
100
AcDbEntity
  8
0
100
AcDbLine
 10
2697.788848874859
 20
-385.423405289692
 30
0.0
 11
2696.16654150989
 21
-387.3345706948003
 31
0.0
  0
LINE
  5
2F6
330
1F
100
AcDbEntity
  8
0
100
AcDbLine
 10
2696.16654150989
 20
-387.3345706948003
 30
0.0
 11
2695.625772388234
 21
-389.6017704284526
 31
0.0
  0
LINE
  5
2F7
330
1F
100
AcDbEntity
  8
0
100
AcDbLine
 10
2695.625772388234
 20
-389.6017704284526
 30
0.0
 11
2696.008677232139
 21
-391.5364475345026
 31
0.0
  0
LINE
  5
2F8
330
1F
100
AcDbEntity
  8
0
100
AcDbLine
 10
2696.008677232139
 20
-391.5364475345026
 30
0.0
 11
2697.157391763856
 21
-393.0949374254872
 31
0.0
  0
LINE
  5
2F9
330
1F
100
AcDbEntity
  8
0
100
AcDbLine
 10
2697.157391763856
 20
-393.0949374254872
 30
0.0
 11
2699.874672629819
 21
-394.4821277810404
 31
0.0
  0
LINE
  5
2FA
330
1F
100
AcDbEntity
  8
0
100
AcDbLine
 10
2699.874672629819
 20
-394.4821277810404
 30
0.0
 11
2705.017017507184
 21
-395.9029062807958
 31
0.0
  0
LINE
  5
2FB
330
1F
100
AcDbEntity
  8
0
100
AcDbLine
 10
2705.017017507184
 20
-395.9029062807958
 30
0.0
 11
2710.374326507444
 21
-397.2497908633063
 31
0.0
  0
LINE
  5
2FC
330
1F
100
AcDbEntity
  8
0
100
AcDbLine
 10
2710.374326507444
 20
-397.2497908633063
 30
0.0
 11
2713.73649974209
 21
-398.4152994671246
 31
0.0
  0
LINE
  5
2FD
330
1F
100
AcDbEntity
  8
0
100
AcDbLine
 10
2713.73649974209
 20
-398.4152994671246
 30
0.0
 11
2716.725844576091
 21
-400.2122651819453
 31
0.0
  0
LINE
  5
2FE
330
1F
100
AcDbEntity
  8
0
100
AcDbLine
 10
2716.725844576091
 20
-400.2122651819453
 30
0.0
 11
2718.815027145471
 21
-402.4324415137144
 31
0.0
  0
LINE
  5
2FF
330
1F
100
AcDbEntity
  8
0
100
AcDbLine
 10
2718.815027145471
 20
-402.4324415137144
 30
0.0
 11
2720.044353223273
 21
-405.0489579470701
 31
0.0
  0
LINE
  5
300
330
1F
100
AcDbEntity
  8
0
100
AcDbLine
 10
2720.044353223273
 20
-405.0489579470701
 30
0.0
 11
2720.454128582541
 21
-408.0349439666506
 31
0.0
  0
LINE
  5
301
330
1F
100
AcDbEntity
  8
0
100
AcDbLine
 10
2720.454128582541
 20
-408.0349439666506
 30
0.0
 11
2720.004047450231
 21
-411.0881062746358
 31
0.0
  0
LINE
  5
302
330
1F
100
AcDbEntity
  8
0
100
AcDbLine
 10
2720.004047450231
 20
-411.0881062746358
 30
0.0
 11
2718.653804053301
 21
-413.9598926039287
 31
0.0
  0
LINE
  5
303
330
1F
100
AcDbEntity
  8
0
100
AcDbLine
 10
2718.653804053301
 20
-413.9598926039287
 30
0.0
 11
2716.460498236893
 21
-416.4319800172147
 31
0.0
  0
LINE
  5
304
330
1F
100
AcDbEntity
  8
0
100
AcDbLine
 10
2716.460498236893
 20
-416.4319800172147
 30
0.0
 11
2713.481229846152
 21
-418.2860455771792
 31
0.0
  0
LINE
  5
305
330
1F
100
AcDbEntity
  8
0
100
AcDbLine
 10
2713.481229846152
 20
-418.2860455771792
 30
0.0
 11
2709.897374859772
 21
-419.444836552157
 31
0.0
  0
LINE
  5
306
330
1F
100
AcDbEntity
  8
0
100
AcDbLine
 10
2709.897374859772
 20
-419.444836552157
 30
0.0
 11
2705.890309256443
 21
-419.831100210483
 31
0.0
  0
LINE
  5
307
330
1F
100
AcDbEntity
  8
0
100
AcDbLine
 10
2705.890309256443
 20
-419.831100210483
 30
0.0
 11
2700.976363759653
 21
-419.4414777377368
 31
0.0
  0
LINE
  5
308
330
1F
100
AcDbEntity
  8
0
100
AcDbLine
 10
2700.976363759653
 20
-419.4414777377368
 30
0.0
 11
2696.928992383281
 21
-418.2726103194983
 31
0.0
  0
LINE
  5
309
330
1F
100
AcDbEntity
  8
0
100
AcDbLine
 10
2696.928992383281
 20
-418.2726103194983
 30
0.0
 11
2693.704530539864
 21
-416.3211391413472
 31
0.0
  0
LINE
  5
30A
330
1F
100
AcDbEntity
  8
0
100
AcDbLine
 10
2693.704530539864
 20
-416.3211391413472
 30
0.0
 11
2691.25931364194
 21
-413.5837053888634
 31
0.0
  0
LINE
  5
30B
330
1F
100
AcDbEntity
  8
0
100
AcDbLine
 10
2691.25931364194
 20
-413.5837053888634
 30
0.0
 11
2689.690747307695
 21
-410.2484026695794
 31
0.0
  0
LINE
  5
30C
330
1F
100
AcDbEntity
  8
0
100
AcDbLine
 10
2689.690747307695
 20
-410.2484026695794
 30
0.0
 11
2689.096237155315
 21
-406.5033245910278
 31
0.0
  0
LINE
  5
30D
330
1F
100
AcDbEntity
  8
0
100
AcDbLine
 10
-664.4498176834567
 20
-399.2254643048448
 30
0.0
 11
-663.5225876365081
 21
-398.190923728051
 31
0.0
  0
LINE
  5
30E
330
1F
100
AcDbEntity
  8
0
100
AcDbLine
 10
-662.3304347190034
 20
-393.9404207099423
 30
0.0
 11
-662.6423059463676
 21
-391.650011588547
 31
0.0
  0
LINE
  5
30F
330
1F
100
AcDbEntity
  8
0
100
AcDbLine
 10
-663.5779196284606
 20
-389.7150685972661
 30
0.0
 11
-665.0232583273203
 21
-388.2563160821755
 31
0.0
  0
LINE
  5
310
330
1F
100
AcDbEntity
  8
0
100
AcDbLine
 10
-662.6423059463676
 20
-391.650011588547
 30
0.0
 11
-663.5779196284606
 21
-389.7150685972661
 31
0.0
  0
LINE
  5
311
330
1F
100
AcDbEntity
  8
0
100
AcDbLine
 10
-681.7804682535436
 20
-401.1033985771455
 30
0.0
 11
-671.6127955506599
 21
-401.1033985771455
 31
0.0
  0
LINE
  5
312
330
1F
100
AcDbEntity
  8
0
100
AcDbLine
 10
-681.7804682535436
 20
-405.7445789929735
 30
0.0
 11
-681.7804682535436
 21
-421.7338479399889
 31
0.0
  0
LINE
  5
313
330
1F
100
AcDbEntity
  8
0
100
AcDbLine
 10
-686.9850289510626
 20
-421.7338479399889
 30
0.0
 11
-686.9850289510626
 21
-382.404538751525
 31
0.0
  0
LINE
  5
314
330
1F
100
AcDbEntity
  8
0
100
AcDbLine
 10
-667.8435131898283
 20
-405.527442842739
 30
0.0
 11
-671.6932784480446
 21
-405.7445789929735
 31
0.0
  0
LINE
  5
315
330
1F
100
AcDbEntity
  8
0
100
AcDbLine
 10
-667.3002536324842
 20
-400.6339150090702
 30
0.0
 11
-665.6922724118273
 21
-400.0470605489762
 31
0.0
  0
LINE
  5
316
330
1F
100
AcDbEntity
  8
0
100
AcDbLine
 10
-658.1587378712503
 20
-388.4139284228865
 30
0.0
 11
-657.2633656378501
 21
-390.9759673229534
 31
0.0
  0
LINE
  5
317
330
1F
100
AcDbEntity
  8
0
100
AcDbLine
 10
-665.6922724118273
 20
-400.0470605489762
 30
0.0
 11
-664.4498176834567
 21
-399.2254643048448
 31
0.0
  0
LINE
  5
318
330
1F
100
AcDbEntity
  8
0
100
AcDbLine
 10
-659.5437143970718
 20
-386.2442436475678
 30
0.0
 11
-658.1587378712503
 21
-388.4139284228865
 31
0.0
  0
LINE
  5
319
330
1F
100
AcDbEntity
  8
0
100
AcDbLine
 10
-657.2633656378501
 20
-390.9759673229534
 30
0.0
 11
-656.9649082267167
 21
-393.7794549151735
 31
0.0
  0
LINE
  5
31A
330
1F
100
AcDbEntity
  8
0
100
AcDbLine
 10
-657.1644387431481
 20
-396.1914267461593
 30
0.0
 11
-657.7630302924438
 21
-398.4105749688287
 31
0.0
  0
LINE
  5
31B
330
1F
100
AcDbEntity
  8
0
100
AcDbLine
 10
-663.5225876365081
 20
-398.190923728051
 30
0.0
 11
-662.8602804601165
 21
-396.965236269969
 31
0.0
  0
LINE
  5
31C
330
1F
100
AcDbEntity
  8
0
100
AcDbLine
 10
-657.7630302924438
 20
-398.4105749688287
 30
0.0
 11
-658.7606828746037
 21
-400.4368995831817
 31
0.0
  0
LINE
  5
31D
330
1F
100
AcDbEntity
  8
0
100
AcDbLine
 10
-656.9649082267167
 20
-393.7794549151735
 30
0.0
 11
-657.1644387431481
 21
-396.1914267461593
 31
0.0
  0
LINE
  5
31E
330
1F
100
AcDbEntity
  8
0
100
AcDbLine
 10
-661.310984685469
 20
-384.6178184295933
 30
0.0
 11
-659.5437143970718
 21
-386.2442436475678
 31
0.0
  0
LINE
  5
31F
330
1F
100
AcDbEntity
  8
0
100
AcDbLine
 10
-681.7804682535436
 20
-421.7338479399889
 30
0.0
 11
-686.9850289510626
 21
-421.7338479399889
 31
0.0
  0
LINE
  5
320
330
1F
100
AcDbEntity
  8
0
100
AcDbLine
 10
-662.8602804601165
 20
-396.965236269969
 30
0.0
 11
-662.3304347190034
 21
-393.9404207099423
 31
0.0
  0
LINE
  5
321
330
1F
100
AcDbEntity
  8
0
100
AcDbLine
 10
-660.1573964896272
 20
-402.2704005892178
 30
0.0
 11
-662.0755722106196
 21
-403.7903536408606
 31
0.0
  0
LINE
  5
322
330
1F
100
AcDbEntity
  8
0
100
AcDbLine
 10
-662.0755722106196
 20
-403.7903536408606
 30
0.0
 11
-664.6376111106869
 21
-404.8760343920346
 31
0.0
  0
LINE
  5
323
330
1F
100
AcDbEntity
  8
0
100
AcDbLine
 10
-748.0715480657508
 20
-421.7338479399889
 30
0.0
 11
-753.2761087632691
 21
-421.7338479399889
 31
0.0
  0
LINE
  5
324
330
1F
100
AcDbEntity
  8
0
100
AcDbLine
 10
-766.2338552421421
 20
-382.404538751525
 30
0.0
 11
-735.0601463219543
 21
-382.404538751525
 31
0.0
  0
LINE
  5
325
330
1F
100
AcDbEntity
  8
0
100
AcDbLine
 10
-766.2338552421421
 20
-387.0457191673533
 30
0.0
 11
-766.2338552421421
 21
-382.404538751525
 31
0.0
  0
LINE
  5
326
330
1F
100
AcDbEntity
  8
0
100
AcDbLine
 10
-735.0601463219543
 20
-382.404538751525
 30
0.0
 11
-735.0601463219543
 21
-387.0457191673533
 31
0.0
  0
LINE
  5
327
330
1F
100
AcDbEntity
  8
0
100
AcDbLine
 10
-735.0601463219543
 20
-387.0457191673533
 30
0.0
 11
-748.0715480657508
 21
-387.0457191673533
 31
0.0
  0
LINE
  5
328
330
1F
100
AcDbEntity
  8
0
100
AcDbLine
 10
-748.0715480657508
 20
-387.0457191673533
 30
0.0
 11
-748.0715480657508
 21
-421.7338479399889
 31
0.0
  0
LINE
  5
329
330
1F
100
AcDbEntity
  8
0
100
AcDbLine
 10
-665.0232583273203
 20
-388.2563160821755
 30
0.0
 11
-666.8643046049857
 21
-387.3944783893521
 31
0.0
  0
LINE
  5
32A
330
1F
100
AcDbEntity
  8
0
100
AcDbLine
 10
-671.7201060805056
 20
-387.0457191673533
 30
0.0
 11
-681.7804682535436
 21
-387.0457191673533
 31
0.0
  0
LINE
  5
32B
330
1F
100
AcDbEntity
  8
0
100
AcDbLine
 10
-681.7804682535436
 20
-387.0457191673533
 30
0.0
 11
-681.7804682535436
 21
-401.1033985771455
 31
0.0
  0
LINE
  5
32C
330
1F
100
AcDbEntity
  8
0
 62
   250
420
  1973790
100
AcDbLine
 10
-1617.312874371544
 20
382.405281426934
 30
0.0
 11
-1617.312874371543
 21
-305.5947185730677
 31
0.0
  0
LINE
  5
32D
330
1F
100
AcDbEntity
  8
0
 62
   250
420
  1973790
100
AcDbLine
 10
1551.001664762926
 20
-305.5947204256227
 30
0.0
 11
363.0017689730271
 21
-305.5947204256183
 31
0.0
  0
LINE
  5
32E
330
1F
100
AcDbEntity
  8
0
 62
   250
420
  1973790
100
AcDbLine
 10
363.0017689730271
 20
-305.5947204256183
 30
0.0
 11
363.0017689730286
 21
422.4045368663853
 31
0.0
  0
LINE
  5
32F
330
1F
100
AcDbEntity
  8
0
 62
   250
420
  1973790
100
AcDbLine
 10
-2345.3175212496
 20
382.405281426934
 30
0.0
 11
-1617.312874371544
 21
382.405281426934
 31
0.0
  0
LINE
  5
330
330
1F
100
AcDbEntity
  8
0
 62
   250
420
  1973790
100
AcDbLine
 10
1551.001664762929
 20
422.4045368663868
 30
0.0
 11
1551.001664762926
 21
-305.5947204256227
 31
0.0
  0
LINE
  5
331
330
1F
100
AcDbEntity
  8
0
 62
   250
420
  1973790
100
AcDbLine
 10
363.0017689730286
 20
422.4045368663853
 30
0.0
 11
1551.001664762929
 21
422.4045368663868
 31
0.0
  0
LINE
  5
332
330
1F
100
AcDbEntity
  8
0
100
AcDbLine
 10
886.5557074783051
 20
-416.4219767126247
 30
0.0
 11
896.3477933267293
 21
-416.4219767126247
 31
0.0
  0
LINE
  5
333
330
1F
100
AcDbEntity
  8
0
100
AcDbLine
 10
896.3477933267293
 20
-421.063157128453
 30
0.0
 11
881.3511467807868
 21
-421.063157128453
 31
0.0
  0
LINE
  5
334
330
1F
100
AcDbEntity
  8
0
100
AcDbLine
 10
905.3752916500022
 20
-407.6057459949857
 30
0.0
 11
904.530221227467
 21
-405.8384757065886
 31
0.0
  0
LINE
  5
335
330
1F
100
AcDbEntity
  8
0
100
AcDbLine
 10
895.6502748827317
 20
-402.9008499520614
 30
0.0
 11
886.5557074783051
 21
-402.9008499520614
 31
0.0
  0
LINE
  5
336
330
1F
100
AcDbEntity
  8
0
100
AcDbLine
 10
905.0634204226378
 20
-419.590990797132
 30
0.0
 11
902.6925284038584
 21
-420.405880133148
 31
0.0
  0
LINE
  5
337
330
1F
100
AcDbEntity
  8
0
100
AcDbLine
 10
904.530221227467
 20
-405.8384757065886
 30
0.0
 11
903.1854861503374
 21
-404.4568526348244
 31
0.0
  0
LINE
  5
338
330
1F
100
AcDbEntity
  8
0
100
AcDbLine
 10
901.763621629881
 20
-397.0188915348918
 30
0.0
 11
903.0144599933959
 21
-395.8451826147037
 31
0.0
  0
LINE
  5
339
330
1F
100
AcDbEntity
  8
0
100
AcDbLine
 10
903.0815290745488
 20
-388.963894888346
 30
0.0
 11
901.9413546949387
 21
-387.7097030707737
 31
0.0
  0
LINE
  5
33A
330
1F
100
AcDbEntity
  8
0
100
AcDbLine
 10
908.8025216969501
 20
-394.2422315751334
 30
0.0
 11
907.776364755301
 21
-396.5427010587014
 31
0.0
  0
LINE
  5
33B
330
1F
100
AcDbEntity
  8
0
100
AcDbLine
 10
903.0144599933959
 20
-395.8451826147037
 30
0.0
 11
903.768987156374
 21
-394.3025937481716
 31
0.0
  0
LINE
  5
33C
330
1F
100
AcDbEntity
  8
0
100
AcDbLine
 10
901.9413546949387
 20
-387.7097030707737
 30
0.0
 11
900.3987658284059
 21
-386.9249948212765
 31
0.0
  0
LINE
  5
33D
330
1F
100
AcDbEntity
  8
0
100
AcDbLine
 10
2001.461810223292
 20
373.04128718753
 30
0.0
 11
1988.327661454857
 21
373.0412871875314
 31
0.0
  0
LINE
  5
33E
330
1F
100
AcDbEntity
  8
0
100
AcDbLine
 10
2530.733372481158
 20
-298.5728019944553
 30
0.0
 11
2543.867521249599
 21
-298.5728019944564
 31
0.0
  0
LINE
  5
33F
330
1F
100
AcDbEntity
  8
0
100
AcDbLine
 10
1988.327661454857
 20
373.0412871875314
 30
0.0
 11
1988.327661454864
 21
-298.572801994464
 31
0.0
  0
LINE
  5
340
330
1F
100
AcDbEntity
  8
0
100
AcDbLine
 10
2530.731678631933
 20
-305.5947204256187
 30
0.0
 11
2530.733372481158
 21
-298.5728019944553
 31
0.0
  0
LINE
  5
341
330
1F
100
AcDbEntity
  8
0
100
AcDbLine
 10
2530.731678631931
 20
380.0632056187081
 30
0.0
 11
2001.463504072524
 21
380.063205618698
 31
0.0
  0
LINE
  5
342
330
1F
100
AcDbEntity
  8
0
100
AcDbLine
 10
2530.733372481158
 20
373.0412871875429
 30
0.0
 11
2543.867521249595
 21
373.0412871875343
 31
0.0
  0
LINE
  5
343
330
1F
100
AcDbEntity
  8
0
100
AcDbLine
 10
2001.463504072529
 20
-305.594720425627
 30
0.0
 11
2001.461810223305
 21
-298.5728019944651
 31
0.0
  0
LINE
  5
344
330
1F
100
AcDbEntity
  8
0
100
AcDbLine
 10
2543.867521249599
 20
-298.5728019944564
 30
0.0
 11
2543.867521249595
 21
373.0412871875343
 31
0.0
  0
LINE
  5
345
330
1F
100
AcDbEntity
  8
0
100
AcDbLine
 10
2001.463504072529
 20
-305.594720425627
 30
0.0
 11
2530.731678631933
 21
-305.5947204256187
 31
0.0
  0
LINE
  5
346
330
1F
100
AcDbEntity
  8
0
100
AcDbLine
 10
2001.461810223305
 20
-298.5728019944651
 30
0.0
 11
1988.327661454864
 21
-298.572801994464
 31
0.0
  0
LINE
  5
347
330
1F
100
AcDbEntity
  8
0
100
AcDbLine
 10
2001.463504072524
 20
380.063205618698
 30
0.0
 11
2001.461810223292
 21
373.04128718753
 31
0.0
  0
LINE
  5
348
330
1F
100
AcDbEntity
  8
0
100
AcDbLine
 10
2530.731678631931
 20
380.0632056187081
 30
0.0
 11
2530.733372481158
 21
373.0412871875429
 31
0.0
  0
LINE
  5
349
330
1F
100
AcDbEntity
  8
0
 62
   250
420
  1973790
100
AcDbLine
 10
-2345.3175212496
 20
-305.5947185730651
 30
0.0
 11
-2345.3175212496
 21
382.405281426934
 31
0.0
  0
LINE
  5
34A
330
1F
100
AcDbEntity
  8
0
 62
   250
420
  1973790
100
AcDbLine
 10
-3181.6175212496
 20
382.4052814269325
 30
0.0
 11
-2453.612874371544
 21
382.4052814269325
 31
0.0
  0
LINE
  5
34B
330
1F
100
AcDbEntity
  8
0
 62
   250
420
  1973790
100
AcDbLine
 10
-2453.612874371544
 20
382.4052814269325
 30
0.0
 11
-2453.612874371544
 21
-305.5947185730702
 31
0.0
  0
LINE
  5
34C
330
1F
100
AcDbEntity
  8
0
 62
   250
420
  1973790
100
AcDbLine
 10
-3181.6175212496
 20
-305.5947185730677
 30
0.0
 11
-3181.6175212496
 21
382.4052814269325
 31
0.0
  0
LINE
  5
34D
330
1F
100
AcDbEntity
  8
0
 62
   250
420
  1973790
100
AcDbLine
 10
-2453.612874371544
 20
-305.5947185730702
 30
0.0
 11
-3181.6175212496
 21
-305.5947185730677
 31
0.0
  0
LINE
  5
34E
330
1F
100
AcDbEntity
  8
0
 62
   250
420
  1973790
100
AcDbLine
 10
-1617.312874371543
 20
-305.5947185730677
 30
0.0
 11
-2345.3175212496
 21
-305.5947185730651
 31
0.0
  0
LINE
  5
34F
330
1F
100
AcDbEntity
  8
0
100
AcDbLine
 10
-2451.210910516374
 20
-405.5031303008206
 30
0.0
 11
-2462.820568464061
 21
-402.3207024000828
 31
0.0
  0
LINE
  5
350
330
1F
100
AcDbEntity
  8
0
100
AcDbLine
 10
-2322.974827350713
 20
-405.5031303008206
 30
0.0
 11
-2334.5844852984
 21
-402.3207024000828
 31
0.0
  0
LINE
  5
351
330
1F
100
AcDbEntity
  8
0
100
AcDbLine
 10
2710.807613567653
 20
-402.902675532546
 30
0.0
 11
2699.179398044832
 21
-399.7151606477519
 31
0.0
  0
ENDSEC
  0
SECTION
  2
OBJECTS
  0
DICTIONARY
  5
C
330
0
100
AcDbDictionary
281
     1
  3
ACAD_DETAILVIEWSTYLE
350
359
  3
ACAD_GROUP
350
D
  3
ACAD_LAYOUT
350
1A
  3
ACAD_MATERIAL
350
43
  3
ACAD_MLEADERSTYLE
350
6B
  3
ACAD_MLINESTYLE
350
17
  3
ACAD_PLOTSETTINGS
350
19
  3
ACAD_PLOTSTYLENAME
350
E
  3
ACAD_SCALELIST
350
47
  3
ACAD_SECTIONVIEWSTYLE
350
35A
  3
ACAD_TABLESTYLE
350
69
  3
ACAD_VISUALSTYLE
350
2A
  3
ACDB_RECOMPOSE_DATA
350
356
  3
AcDbVariableDictionary
350
352
  0
SUN
  5
6D
330
29
100
AcDbSun
 90
        1
290
     0
 63
     7
421
 16777215
 40
1.0
291
     1
 91
  2455826
 92
 54000000
292
     0
 70
     2
 71
   256
280
     1
  0
DICTIONARY
  5
359
102
{ACAD_REACTORS
330
C
102
}
330
C
100
AcDbDictionary
281
     1
  0
DICTIONARY
  5
D
102
{ACAD_REACTORS
330
C
102
}
330
C
100
AcDbDictionary
281
     1
  0
DICTIONARY
  5
1A
102
{ACAD_REACTORS
330
C
102
}
330
C
100
AcDbDictionary
281
     1
  3
Layout1
350
1E
  3
Layout2
350
26
  3
Model
350
22
  0
DICTIONARY
  5
43
102
{ACAD_REACTORS
330
C
102
}
330
C
100
AcDbDictionary
281
     1
  3
ByBlock
350
45
  3
ByLayer
350
44
  3
Global
350
46
  0
DICTIONARY
  5
6B
102
{ACAD_REACTORS
330
C
102
}
330
C
100
AcDbDictionary
281
     1
  3
Standard
350
6C
  0
DICTIONARY
  5
17
102
{ACAD_REACTORS
330
C
102
}
330
C
100
AcDbDictionary
281
     1
  3
Standard
350
18
  0
DICTIONARY
  5
19
102
{ACAD_REACTORS
330
C
102
}
330
C
100
AcDbDictionary
281
     1
  0
ACDBDICTIONARYWDFLT
  5
E
102
{ACAD_REACTORS
330
C
102
}
330
C
100
AcDbDictionary
281
     1
  3
Normal
350
F
100
AcDbDictionaryWithDefault
340
F
  0
DICTIONARY
  5
47
102
{ACAD_REACTORS
330
C
102
}
330
C
100
AcDbDictionary
281
     1
  3
A0
350
48
  3
A1
350
49
  3
A2
350
4A
  3
A3
350
4B
  3
A4
350
4C
  3
A5
350
4D
  3
A6
350
4E
  3
A7
350
4F
  3
A8
350
50
  3
A9
350
51
  3
B0
350
52
  3
B1
350
53
  3
B2
350
54
  3
B3
350
55
  3
B4
350
56
  3
B5
350
57
  3
B6
350
58
  3
B7
350
59
  3
B8
350
5A
  3
B9
350
5B
  3
C0
350
5C
  3
C1
350
5D
  3
C2
350
5E
  3
C3
350
5F
  3
C4
350
60
  3
C5
350
61
  3
C6
350
62
  3
C7
350
63
  3
C8
350
64
  3
C9
350
65
  3
D0
350
66
  3
D1
350
67
  3
D2
350
68
  0
DICTIONARY
  5
35A
102
{ACAD_REACTORS
330
C
102
}
330
C
100
AcDbDictionary
281
     1
  0
DICTIONARY
  5
69
102
{ACAD_REACTORS
330
C
102
}
330
C
100
AcDbDictionary
281
     1
  3
Standard
350
6A
  0
DICTIONARY
  5
2A
102
{ACAD_REACTORS
330
C
102
}
330
C
100
AcDbDictionary
281
     1
  3
2dWireframe
350
2F
  3
Basic
350
32
  3
Brighten
350
36
  3
ColorChange
350
3A
  3
Conceptual
350
34
  3
Dim
350
35
  3
EdgeColorOff
350
3D
  3
Facepattern
350
39
  3
Flat
350
2B
  3
FlatWithEdges
350
2C
  3
Gouraud
350
2D
  3
GouraudWithEdges
350
2E
  3
Hidden
350
31
  3
JitterOff
350
3B
  3
Linepattern
350
38
  3
OverhangOff
350
3C
  3
Realistic
350
33
  3
Shaded
350
42
  3
Shaded with edges
350
41
  3
Shades of Gray
350
3E
  3
Sketchy
350
3F
  3
Thicken
350
37
  3
Wireframe
350
30
  3
X-Ray
350
40
  0
XRECORD
  5
356
102
{ACAD_REACTORS
330
C
102
}
330
C
100
AcDbXrecord
280
     1
 90
        1
330
6A
  0
DICTIONARY
  5
352
102
{ACAD_REACTORS
330
C
102
}
330
C
100
AcDbDictionary
281
     1
  3
CANNOSCALE
350
353
  3
CMLEADERSTYLE
350
358
  3
CTABLESTYLE
350
357
  0
LAYOUT
  5
1E
102
{ACAD_REACTORS
330
1A
102
}
330
1A
100
AcDbPlotSettings
  1

  2
none_device
  4

  6

 40
0.0
 41
0.0
 42
0.0
 43
0.0
 44
0.0
 45
0.0
 46
0.0
 47
0.0
 48
0.0
 49
0.0
140
0.0
141
0.0
142
1.0
143
1.0
 70
   688
 72
     0
 73
     0
 74
     5
  7

 75
    16
 76
     0
 77
     2
 78
   300
147
1.0
148
0.0
149
0.0
100
AcDbLayout
  1
Layout1
 70
     1
 71
     1
 10
0.0
 20
0.0
 11
12.0
 21
9.0
 12
0.0
 22
0.0
 32
0.0
 14
1.000000000000000E+20
 24
1.000000000000000E+20
 34
1.000000000000000E+20
 15
-1.000000000000000E+20
 25
-1.000000000000000E+20
 35
-1.000000000000000E+20
146
0.0
 13
0.0
 23
0.0
 33
0.0
 16
1.0
 26
0.0
 36
0.0
 17
0.0
 27
1.0
 37
0.0
 76
     0
330
1B
  0
LAYOUT
  5
26
102
{ACAD_REACTORS
330
1A
102
}
330
1A
100
AcDbPlotSettings
  1

  2
none_device
  4

  6

 40
0.0
 41
0.0
 42
0.0
 43
0.0
 44
0.0
 45
0.0
 46
0.0
 47
0.0
 48
0.0
 49
0.0
140
0.0
141
0.0
142
1.0
143
1.0
 70
   688
 72
     0
 73
     0
 74
     5
  7

 75
    16
 76
     0
 77
     2
 78
   300
147
1.0
148
0.0
149
0.0
100
AcDbLayout
  1
Layout2
 70
     1
 71
     2
 10
0.0
 20
0.0
 11
0.0
 21
0.0
 12
0.0
 22
0.0
 32
0.0
 14
0.0
 24
0.0
 34
0.0
 15
0.0
 25
0.0
 35
0.0
146
0.0
 13
0.0
 23
0.0
 33
0.0
 16
1.0
 26
0.0
 36
0.0
 17
0.0
 27
1.0
 37
0.0
 76
     0
330
23
  0
LAYOUT
  5
22
102
{ACAD_REACTORS
330
1A
102
}
330
1A
100
AcDbPlotSettings
  1

  2
none_device
  4
Letter_(8.50_x_11.00_Inches)
  6

 40
6.35
 41
6.35
 42
6.35000508
 43
6.35000508
 44
215.9
 45
279.4
 46
0.0
 47
0.0
 48
0.0
 49
0.0
140
0.0
141
0.0
142
1.0
143
1.0
 70
  1712
 72
     0
 73
     0
 74
     0
  7

 75
     0
 76
     0
 77
     2
 78
   300
147
1.0
148
0.0
149
0.0
100
AcDbLayout
  1
Model
 70
     1
 71
     0
 10
0.0
 20
0.0
 11
12.0
 21
9.0
 12
0.0
 22
0.0
 32
0.0
 14
1.000000000000000E+20
 24
1.000000000000000E+20
 34
1.000000000000000E+20
 15
-1.000000000000000E+20
 25
-1.000000000000000E+20
 35
-1.000000000000000E+20
146
0.0
 13
0.0
 23
0.0
 33
0.0
 16
1.0
 26
0.0
 36
0.0
 17
0.0
 27
1.0
 37
0.0
 76
     0
330
1F
331
29
  0
MATERIAL
  5
45
102
{ACAD_REACTORS
330
43
102
}
330
43
100
AcDbMaterial
  1
ByBlock
 72
     1
 94
      127
  0
MATERIAL
  5
44
102
{ACAD_REACTORS
330
43
102
}
330
43
100
AcDbMaterial
  1
ByLayer
 72
     1
 94
      127
  0
MATERIAL
  5
46
102
{ACAD_REACTORS
330
43
102
}
330
43
100
AcDbMaterial
  1
Global
 72
     1
 94
      127
  0
MLEADERSTYLE
  5
6C
102
{ACAD_REACTORS
330
6B
102
}
330
6B
100
AcDbMLeaderStyle
179
     2
170
     2
171
     1
172
     0
 90
        2
 40
0.0
 41
0.0
173
     1
 91
-1056964608
340
14
 92
       -2
290
     1
 42
0.09
291
     1
 43
0.36
  3
Standard
341
0
 44
0.18
300

342
11
174
     1
178
     6
175
     1
176
     0
 93
-1056964608
 45
0.18
292
     0
297
     0
 46
0.18
343
0
 94
-1056964608
 47
1.0
 49
1.0
140
1.0
293
     1
141
0.0
294
     1
177
     0
142
1.0
295
     0
296
     0
143
0.125
271
     0
272
     9
273
     9
298
     0
  0
MLINESTYLE
  5
18
102
{ACAD_REACTORS
330
17
102
}
330
17
100
AcDbMlineStyle
  2
Standard
 70
     0
  3

 62
   256
 51
90.0
 52
90.0
 71
     2
 49
0.5
 62
   256
  6
BYLAYER
 49
-0.5
 62
   256
  6
BYLAYER
  0
ACDBPLACEHOLDER
  5
F
102
{ACAD_REACTORS
330
E
102
}
330
E
  0
SCALE
  5
48
102
{ACAD_REACTORS
330
47
102
}
330
47
100
AcDbScale
 70
     0
300
1:1
140
1.0
141
1.0
290
     1
  0
SCALE
  5
49
102
{ACAD_REACTORS
330
47
102
}
330
47
100
AcDbScale
 70
     0
300
1:2
140
1.0
141
2.0
290
     0
  0
SCALE
  5
4A
102
{ACAD_REACTORS
330
47
102
}
330
47
100
AcDbScale
 70
     0
300
1:4
140
1.0
141
4.0
290
     0
  0
SCALE
  5
4B
102
{ACAD_REACTORS
330
47
102
}
330
47
100
AcDbScale
 70
     0
300
1:5
140
1.0
141
5.0
290
     0
  0
SCALE
  5
4C
102
{ACAD_REACTORS
330
47
102
}
330
47
100
AcDbScale
 70
     0
300
1:8
140
1.0
141
8.0
290
     0
  0
SCALE
  5
4D
102
{ACAD_REACTORS
330
47
102
}
330
47
100
AcDbScale
 70
     0
300
1:10
140
1.0
141
10.0
290
     0
  0
SCALE
  5
4E
102
{ACAD_REACTORS
330
47
102
}
330
47
100
AcDbScale
 70
     0
300
1:16
140
1.0
141
16.0
290
     0
  0
SCALE
  5
4F
102
{ACAD_REACTORS
330
47
102
}
330
47
100
AcDbScale
 70
     0
300
1:20
140
1.0
141
20.0
290
     0
  0
SCALE
  5
50
102
{ACAD_REACTORS
330
47
102
}
330
47
100
AcDbScale
 70
     0
300
1:30
140
1.0
141
30.0
290
     0
  0
SCALE
  5
51
102
{ACAD_REACTORS
330
47
102
}
330
47
100
AcDbScale
 70
     0
300
1:40
140
1.0
141
40.0
290
     0
  0
SCALE
  5
52
102
{ACAD_REACTORS
330
47
102
}
330
47
100
AcDbScale
 70
     0
300
1:50
140
1.0
141
50.0
290
     0
  0
SCALE
  5
53
102
{ACAD_REACTORS
330
47
102
}
330
47
100
AcDbScale
 70
     0
300
1:100
140
1.0
141
100.0
290
     0
  0
SCALE
  5
54
102
{ACAD_REACTORS
330
47
102
}
330
47
100
AcDbScale
 70
     0
300
2:1
140
2.0
141
1.0
290
     0
  0
SCALE
  5
55
102
{ACAD_REACTORS
330
47
102
}
330
47
100
AcDbScale
 70
     0
300
4:1
140
4.0
141
1.0
290
     0
  0
SCALE
  5
56
102
{ACAD_REACTORS
330
47
102
}
330
47
100
AcDbScale
 70
     0
300
8:1
140
8.0
141
1.0
290
     0
  0
SCALE
  5
57
102
{ACAD_REACTORS
330
47
102
}
330
47
100
AcDbScale
 70
     0
300
10:1
140
10.0
141
1.0
290
     0
  0
SCALE
  5
58
102
{ACAD_REACTORS
330
47
102
}
330
47
100
AcDbScale
 70
     0
300
100:1
140
100.0
141
1.0
290
     0
  0
SCALE
  5
59
102
{ACAD_REACTORS
330
47
102
}
330
47
100
AcDbScale
 70
     0
300
1/128" = 1'-0"
140
0.0078125
141
12.0
290
     0
  0
SCALE
  5
5A
102
{ACAD_REACTORS
330
47
102
}
330
47
100
AcDbScale
 70
     0
300
1/64" = 1'-0"
140
0.015625
141
12.0
290
     0
  0
SCALE
  5
5B
102
{ACAD_REACTORS
330
47
102
}
330
47
100
AcDbScale
 70
     0
300
1/32" = 1'-0"
140
0.03125
141
12.0
290
     0
  0
SCALE
  5
5C
102
{ACAD_REACTORS
330
47
102
}
330
47
100
AcDbScale
 70
     0
300
1/16" = 1'-0"
140
0.0625
141
12.0
290
     0
  0
SCALE
  5
5D
102
{ACAD_REACTORS
330
47
102
}
330
47
100
AcDbScale
 70
     0
300
3/32" = 1'-0"
140
0.09375
141
12.0
290
     0
  0
SCALE
  5
5E
102
{ACAD_REACTORS
330
47
102
}
330
47
100
AcDbScale
 70
     0
300
1/8" = 1'-0"
140
0.125
141
12.0
290
     0
  0
SCALE
  5
5F
102
{ACAD_REACTORS
330
47
102
}
330
47
100
AcDbScale
 70
     0
300
3/16" = 1'-0"
140
0.1875
141
12.0
290
     0
  0
SCALE
  5
60
102
{ACAD_REACTORS
330
47
102
}
330
47
100
AcDbScale
 70
     0
300
1/4" = 1'-0"
140
0.25
141
12.0
290
     0
  0
SCALE
  5
61
102
{ACAD_REACTORS
330
47
102
}
330
47
100
AcDbScale
 70
     0
300
3/8" = 1'-0"
140
0.375
141
12.0
290
     0
  0
SCALE
  5
62
102
{ACAD_REACTORS
330
47
102
}
330
47
100
AcDbScale
 70
     0
300
1/2" = 1'-0"
140
0.5
141
12.0
290
     0
  0
SCALE
  5
63
102
{ACAD_REACTORS
330
47
102
}
330
47
100
AcDbScale
 70
     0
300
3/4" = 1'-0"
140
0.75
141
12.0
290
     0
  0
SCALE
  5
64
102
{ACAD_REACTORS
330
47
102
}
330
47
100
AcDbScale
 70
     0
300
1" = 1'-0"
140
1.0
141
12.0
290
     0
  0
SCALE
  5
65
102
{ACAD_REACTORS
330
47
102
}
330
47
100
AcDbScale
 70
     0
300
1-1/2" = 1'-0"
140
1.5
141
12.0
290
     0
  0
SCALE
  5
66
102
{ACAD_REACTORS
330
47
102
}
330
47
100
AcDbScale
 70
     0
300
3" = 1'-0"
140
3.0
141
12.0
290
     0
  0
SCALE
  5
67
102
{ACAD_REACTORS
330
47
102
}
330
47
100
AcDbScale
 70
     0
300
6" = 1'-0"
140
6.0
141
12.0
290
     0
  0
SCALE
  5
68
102
{ACAD_REACTORS
330
47
102
}
330
47
100
AcDbScale
 70
     0
300
1'-0" = 1'-0"
140
12.0
141
12.0
290
     0
  0
TABLESTYLE
  5
6A
102
{ACAD_REACTORS
330
69
102
}
102
{ACAD_XDICTIONARY
360
354
102
}
330
69
100
AcDbTableStyle
  3
Standard
 70
     0
 71
     0
 40
0.06
 41
0.06
280
     0
281
     0
  7
Standard
140
0.18
170
     2
 62
     0
 63
   257
283
     0
 90
        4
 91
        0
  1

274
    -2
284
     1
 64
     0
275
    -2
285
     1
 65
     0
276
    -2
286
     1
 66
     0
277
    -2
287
     1
 67
     0
278
    -2
288
     1
 68
     0
279
    -2
289
     1
 69
     0
  7
Standard
140
0.25
170
     5
 62
     0
 63
   257
283
     0
 90
        4
 91
        0
  1

274
    -2
284
     1
 64
     0
275
    -2
285
     1
 65
     0
276
    -2
286
     1
 66
     0
277
    -2
287
     1
 67
     0
278
    -2
288
     1
 68
     0
279
    -2
289
     1
 69
     0
  7
Standard
140
0.18
170
     5
 62
     0
 63
   257
283
     0
 90
        4
 91
        0
  1

274
    -2
284
     1
 64
     0
275
    -2
285
     1
 65
     0
276
    -2
286
     1
 66
     0
277
    -2
287
     1
 67
     0
278
    -2
288
     1
 68
     0
279
    -2
289
     1
 69
     0
  0
VISUALSTYLE
  5
2F
102
{ACAD_REACTORS
330
2A
102
}
330
2A
100
AcDbVisualStyle
  2
2dWireframe
 70
     4
177
     3
291
     0
 70
    58
 90
        0
176
     1
 90
        2
176
     1
 90
        0
176
     1
 90
        0
176
     1
 40
0.6
176
     1
 40
30.0
176
     1
 62
     7
420
 16777215
176
     1
 90
        1
176
     1
 90
        4
176
     1
 62
     7
176
     1
 62
   257
176
     1
 90
        1
176
     1
 90
        1
176
     1
 40
1.0
176
     1
 90
        0
176
     1
 62
   257
176
     1
 40
1.0
176
     1
 90
        1
176
     1
 90
        6
176
     1
 90
        2
176
     1
 62
     7
176
     1
 90
        5
176
     1
 90
        0
176
     1
 90
        0
176
     1
290
     0
176
     1
 90
        1
176
     1
 40
0.0
176
     1
 90
        0
176
     1
290
     1
176
     1
290
     1
176
     1
290
     0
176
     1
290
     0
176
     1
290
     0
176
     1
290
     0
176
     1
290
     0
176
     1
290
     0
176
     1
290
     0
176
     1
 90
       50
176
     1
 40
0.0
176
     1
 40
1.0
176
     1
 90
        0
176
     1
 62
    18
420
        0
176
     1
 90
       50
176
     1
 90
        3
176
     1
 62
     5
420
      255
176
     1
290
     0
176
     1
 90
       50
176
     1
 90
       50
176
     1
 90
       50
176
     1
290
     0
176
     1
 90
       50
176
     1
 62
   256
176
     0
 40
1.0
176
     0
 90
        2
176
     1
  1
strokes_ogs.tif
176
     1
290
     0
176
     1
 40
1.0
176
     1
 40
1.0
176
     1
  0
VISUALSTYLE
  5
32
102
{ACAD_REACTORS
330
2A
102
}
330
2A
100
AcDbVisualStyle
  2
Basic
 70
     7
177
     3
291
     1
 70
    58
 90
        1
176
     1
 90
        0
176
     1
 90
        1
176
     1
 90
        0
176
     1
 40
0.6
176
     1
 40
30.0
176
     1
 62
     7
420
 16777215
176
     1
 90
        0
176
     1
 90
        4
176
     1
 62
     7
176
     1
 62
   257
176
     1
 90
        1
176
     1
 90
        1
176
     1
 40
1.0
176
     1
 90
        8
176
     1
 62
     7
176
     1
 40
1.0
176
     1
 90
        1
176
     1
 90
        6
176
     1
 90
        2
176
     1
 62
     7
176
     1
 90
        5
176
     1
 90
        0
176
     1
 90
        0
176
     1
290
     0
176
     1
 90
        1
176
     1
 40
0.0
176
     1
 90
        0
176
     1
290
     0
176
     1
290
     1
176
     1
290
     1
176
     1
290
     0
176
     1
290
     0
176
     1
290
     0
176
     1
290
     0
176
     1
290
     0
176
     1
290
     0
176
     1
 90
       50
176
     1
 40
0.0
176
     1
 40
1.0
176
     1
 90
        0
176
     1
 62
    18
420
        0
176
     1
 90
       50
176
     1
 90
        3
176
     1
 62
     5
420
      255
176
     1
290
     0
176
     1
 90
       50
176
     1
 90
       50
176
     1
 90
       50
176
     1
290
     0
176
     1
 90
       50
176
     1
 62
   256
176
     0
 40
1.0
176
     0
 90
        2
176
     1
  1
strokes_ogs.tif
176
     1
290
     0
176
     1
 40
1.0
176
     1
 40
1.0
176
     1
  0
VISUALSTYLE
  5
36
102
{ACAD_REACTORS
330
2A
102
}
330
2A
100
AcDbVisualStyle
  2
Brighten
 70
    12
177
     3
291
     1
 70
    58
 90
        2
176
     1
 90
        2
176
     1
 90
        0
176
     1
 90
        0
176
     1
 40
0.6
176
     1
 40
30.0
176
     1
 62
     7
420
 16777215
176
     1
 90
        1
176
     1
 90
        4
176
     1
 62
     7
176
     1
 62
   257
176
     1
 90
        1
176
     1
 90
        1
176
     1
 40
1.0
176
     1
 90
        8
176
     1
 62
     7
176
     1
 40
1.0
176
     1
 90
        1
176
     1
 90
        6
176
     1
 90
        2
176
     1
 62
     7
176
     1
 90
        5
176
     1
 90
        0
176
     1
 90
        0
176
     1
290
     0
176
     1
 90
        1
176
     1
 40
50.0
176
     1
 90
        0
176
     1
290
     0
176
     1
290
     1
176
     1
290
     1
176
     1
290
     0
176
     1
290
     0
176
     1
290
     0
176
     1
290
     0
176
     1
290
     0
176
     1
290
     0
176
     1
 90
       50
176
     1
 40
0.0
176
     1
 40
1.0
176
     1
 90
        0
176
     1
 62
    18
420
        0
176
     1
 90
       50
176
     1
 90
        3
176
     1
 62
     5
420
      255
176
     1
290
     0
176
     1
 90
       50
176
     1
 90
       50
176
     1
 90
       50
176
     1
290
     0
176
     1
 90
       50
176
     1
 62
   256
176
     0
 40
1.0
176
     0
 90
        2
176
     1
  1
strokes_ogs.tif
176
     1
290
     0
176
     1
 40
1.0
176
     1
 40
1.0
176
     1
  0
VISUALSTYLE
  5
3A
102
{ACAD_REACTORS
330
2A
102
}
330
2A
100
AcDbVisualStyle
  2
ColorChange
 70
    16
177
     3
291
     1
 70
    58
 90
        2
176
     1
 90
        2
176
     1
 90
        3
176
     1
 90
        0
176
     1
 40
0.6
176
     1
 40
30.0
176
     1
 62
     8
420
  8421504
176
     1
 90
        1
176
     1
 90
        4
176
     1
 62
     7
176
     1
 62
   257
176
     1
 90
        1
176
     1
 90
        1
176
     1
 40
1.0
176
     1
 90
        8
176
     1
 62
     8
420
  8421504
176
     1
 40
1.0
176
     1
 90
        1
176
     1
 90
        6
176
     1
 90
        2
176
     1
 62
     7
176
     1
 90
        5
176
     1
 90
        0
176
     1
 90
        0
176
     1
290
     0
176
     1
 90
        1
176
     1
 40
0.0
176
     1
 90
        0
176
     1
290
     0
176
     1
290
     1
176
     1
290
     1
176
     1
290
     0
176
     1
290
     0
176
     1
290
     0
176
     1
290
     0
176
     1
290
     0
176
     1
290
     0
176
     1
 90
       50
176
     1
 40
0.0
176
     1
 40
1.0
176
     1
 90
        0
176
     1
 62
    18
420
        0
176
     1
 90
       50
176
     1
 90
        3
176
     1
 62
     5
420
      255
176
     1
290
     0
176
     1
 90
       50
176
     1
 90
       50
176
     1
 90
       50
176
     1
290
     0
176
     1
 90
       50
176
     1
 62
   256
176
     0
 40
1.0
176
     0
 90
        2
176
     1
  1
strokes_ogs.tif
176
     1
290
     0
176
     1
 40
1.0
176
     1
 40
1.0
176
     1
  0
VISUALSTYLE
  5
34
102
{ACAD_REACTORS
330
2A
102
}
330
2A
100
AcDbVisualStyle
  2
Conceptual
 70
     9
177
     3
291
     0
 70
    58
 90
        3
176
     1
 90
        2
176
     1
 90
        0
176
     1
 90
        0
176
     1
 40
0.6
176
     1
 40
30.0
176
     1
 62
     7
420
 16777215
176
     1
 90
        2
176
     1
 90
        2
176
     1
 62
     7
176
     1
 62
   257
176
     1
 90
        1
176
     1
 90
        1
176
     1
 40
179.0
176
     1
 90
        8
176
     1
 62
     7
176
     1
 40
1.0
176
     1
 90
        1
176
     1
 90
        6
176
     1
 90
        2
176
     1
 62
     7
176
     1
 90
        3
176
     1
 90
        0
176
     1
 90
        0
176
     1
290
     0
176
     1
 90
        1
176
     1
 40
0.0
176
     1
 90
        0
176
     1
290
     0
176
     1
290
     1
176
     1
290
     1
176
     1
290
     0
176
     1
290
     0
176
     1
290
     0
176
     1
290
     0
176
     1
290
     0
176
     1
290
     0
176
     1
 90
       50
176
     1
 40
0.0
176
     1
 40
1.0
176
     1
 90
        0
176
     1
 62
    18
420
        0
176
     1
 90
       50
176
     1
 90
        3
176
     1
 62
     5
420
      255
176
     1
290
     0
176
     1
 90
       50
176
     1
 90
       50
176
     1
 90
       50
176
     1
290
     0
176
     1
 90
       50
176
     1
 62
   256
176
     0
 40
1.0
176
     0
 90
        2
176
     1
  1
strokes_ogs.tif
176
     1
290
     0
176
     1
 40
1.0
176
     1
 40
1.0
176
     1
  0
VISUALSTYLE
  5
35
102
{ACAD_REACTORS
330
2A
102
}
330
2A
100
AcDbVisualStyle
  2
Dim
 70
    11
177
     3
291
     1
 70
    58
 90
        2
176
     1
 90
        2
176
     1
 90
        0
176
     1
 90
        0
176
     1
 40
0.6
176
     1
 40
30.0
176
     1
 62
     7
420
 16777215
176
     1
 90
        1
176
     1
 90
        4
176
     1
 62
     7
176
     1
 62
   257
176
     1
 90
        1
176
     1
 90
        1
176
     1
 40
1.0
176
     1
 90
        8
176
     1
 62
     7
176
     1
 40
1.0
176
     1
 90
        1
176
     1
 90
        6
176
     1
 90
        2
176
     1
 62
     7
176
     1
 90
        5
176
     1
 90
        0
176
     1
 90
        0
176
     1
290
     0
176
     1
 90
        1
176
     1
 40
-50.0
176
     1
 90
        0
176
     1
290
     0
176
     1
290
     1
176
     1
290
     1
176
     1
290
     0
176
     1
290
     0
176
     1
290
     0
176
     1
290
     0
176
     1
290
     0
176
     1
290
     0
176
     1
 90
       50
176
     1
 40
0.0
176
     1
 40
1.0
176
     1
 90
        0
176
     1
 62
    18
420
        0
176
     1
 90
       50
176
     1
 90
        3
176
     1
 62
     5
420
      255
176
     1
290
     0
176
     1
 90
       50
176
     1
 90
       50
176
     1
 90
       50
176
     1
290
     0
176
     1
 90
       50
176
     1
 62
   256
176
     0
 40
1.0
176
     0
 90
        2
176
     1
  1
strokes_ogs.tif
176
     1
290
     0
176
     1
 40
1.0
176
     1
 40
1.0
176
     1
  0
VISUALSTYLE
  5
3D
102
{ACAD_REACTORS
330
2A
102
}
330
2A
100
AcDbVisualStyle
  2
EdgeColorOff
 70
    22
177
     3
291
     1
 70
    58
 90
        2
176
     0
 90
        2
176
     0
 90
        0
176
     0
 90
        0
176
     0
 40
0.6
176
     0
 40
30.0
176
     0
 62
     7
420
 16777215
176
     0
 90
        1
176
     0
 90
        4
176
     0
 62
     7
176
     0
 62
   257
176
     0
 90
        1
176
     0
 90
        1
176
     0
 40
1.0
176
     0
 90
        8
176
     2
 62
     7
176
     0
 40
1.0
176
     0
 90
        1
176
     0
 90
        6
176
     0
 90
        2
176
     0
 62
     7
176
     0
 90
        5
176
     0
 90
        0
176
     0
 90
        0
176
     0
290
     0
176
     0
 90
        1
176
     0
 40
0.0
176
     0
 90
        0
176
     0
290
     0
176
     0
290
     1
176
     0
290
     1
176
     0
290
     0
176
     0
290
     0
176
     0
290
     0
176
     0
290
     0
176
     0
290
     0
176
     0
290
     0
176
     0
 90
       50
176
     0
 40
0.0
176
     0
 40
1.0
176
     0
 90
        0
176
     0
 62
    18
420
        0
176
     0
 90
       50
176
     0
 90
        3
176
     0
 62
     5
420
      255
176
     0
290
     0
176
     0
 90
       50
176
     0
 90
       50
176
     0
 90
       50
176
     0
290
     0
176
     0
 90
       50
176
     0
 62
   256
176
     0
 40
1.0
176
     0
 90
        2
176
     0
  1
strokes_ogs.tif
176
     0
290
     0
176
     0
 40
1.0
176
     0
 40
1.0
176
     0
  0
VISUALSTYLE
  5
39
102
{ACAD_REACTORS
330
2A
102
}
330
2A
100
AcDbVisualStyle
  2
Facepattern
 70
    15
177
     3
291
     1
 70
    58
 90
        2
176
     1
 90
        2
176
     1
 90
        0
176
     1
 90
        0
176
     1
 40
0.6
176
     1
 40
30.0
176
     1
 62
     7
420
 16777215
176
     1
 90
        1
176
     1
 90
        4
176
     1
 62
     7
176
     1
 62
   257
176
     1
 90
        1
176
     1
 90
        1
176
     1
 40
1.0
176
     1
 90
        8
176
     1
 62
     7
176
     1
 40
1.0
176
     1
 90
        1
176
     1
 90
        6
176
     1
 90
        2
176
     1
 62
     7
176
     1
 90
        5
176
     1
 90
        0
176
     1
 90
        0
176
     1
290
     0
176
     1
 90
        1
176
     1
 40
0.0
176
     1
 90
        0
176
     1
290
     0
176
     1
290
     1
176
     1
290
     1
176
     1
290
     0
176
     1
290
     0
176
     1
290
     0
176
     1
290
     0
176
     1
290
     0
176
     1
290
     0
176
     1
 90
       50
176
     1
 40
0.0
176
     1
 40
1.0
176
     1
 90
        0
176
     1
 62
    18
420
        0
176
     1
 90
       50
176
     1
 90
        3
176
     1
 62
     5
420
      255
176
     1
290
     0
176
     1
 90
       50
176
     1
 90
       50
176
     1
 90
       50
176
     1
290
     0
176
     1
 90
       50
176
     1
 62
   256
176
     0
 40
1.0
176
     0
 90
        2
176
     1
  1
strokes_ogs.tif
176
     1
290
     0
176
     1
 40
1.0
176
     1
 40
1.0
176
     1
  0
VISUALSTYLE
  5
2B
102
{ACAD_REACTORS
330
2A
102
}
330
2A
100
AcDbVisualStyle
  2
Flat
 70
     0
177
     3
291
     1
 70
    58
 90
        2
176
     1
 90
        1
176
     1
 90
        1
176
     1
 90
        2
176
     1
 40
0.6
176
     1
 40
30.0
176
     1
 62
     7
420
 16777215
176
     1
 90
        0
176
     1
 90
        0
176
     1
 62
     7
176
     1
 62
   257
176
     1
 90
        1
176
     1
 90
        1
176
     1
 40
1.0
176
     1
 90
        8
176
     1
 62
     7
176
     1
 40
1.0
176
     1
 90
        1
176
     1
 90
        6
176
     1
 90
        2
176
     1
 62
     7
176
     1
 90
        5
176
     1
 90
        0
176
     1
 90
        0
176
     1
290
     0
176
     1
 90
       13
176
     1
 40
0.0
176
     1
 90
        0
176
     1
290
     0
176
     1
290
     1
176
     1
290
     1
176
     1
290
     0
176
     1
290
     0
176
     1
290
     0
176
     1
290
     0
176
     1
290
     0
176
     1
290
     0
176
     1
 90
       50
176
     1
 40
0.0
176
     1
 40
1.0
176
     1
 90
        0
176
     1
 62
    18
420
        0
176
     1
 90
       50
176
     1
 90
        3
176
     1
 62
     5
420
      255
176
     1
290
     0
176
     1
 90
       50
176
     1
 90
       50
176
     1
 90
       50
176
     1
290
     0
176
     1
 90
       50
176
     1
 62
   256
176
     0
 40
1.0
176
     0
 90
        2
176
     1
  1
strokes_ogs.tif
176
     1
290
     0
176
     1
 40
1.0
176
     1
 40
1.0
176
     1
  0
VISUALSTYLE
  5
2C
102
{ACAD_REACTORS
330
2A
102
}
330
2A
100
AcDbVisualStyle
  2
FlatWithEdges
 70
     1
177
     3
291
     1
 70
    58
 90
        2
176
     1
 90
        1
176
     1
 90
        1
176
     1
 90
        2
176
     1
 40
0.6
176
     1
 40
30.0
176
     1
 62
     7
420
 16777215
176
     1
 90
        1
176
     1
 90
        0
176
     1
 62
     7
176
     1
 62
   257
176
     1
 90
        1
176
     1
 90
        1
176
     1
 40
1.0
176
     1
 90
        0
176
     1
 62
   257
176
     1
 40
1.0
176
     1
 90
        1
176
     1
 90
        6
176
     1
 90
        2
176
     1
 62
     7
176
     1
 90
        5
176
     1
 90
        0
176
     1
 90
        0
176
     1
290
     0
176
     1
 90
       13
176
     1
 40
0.0
176
     1
 90
        0
176
     1
290
     0
176
     1
290
     1
176
     1
290
     1
176
     1
290
     0
176
     1
290
     0
176
     1
290
     0
176
     1
290
     0
176
     1
290
     0
176
     1
290
     0
176
     1
 90
       50
176
     1
 40
0.0
176
     1
 40
1.0
176
     1
 90
        0
176
     1
 62
    18
420
        0
176
     1
 90
       50
176
     1
 90
        3
176
     1
 62
     5
420
      255
176
     1
290
     0
176
     1
 90
       50
176
     1
 90
       50
176
     1
 90
       50
176
     1
290
     0
176
     1
 90
       50
176
     1
 62
   256
176
     0
 40
1.0
176
     0
 90
        2
176
     1
  1
strokes_ogs.tif
176
     1
290
     0
176
     1
 40
1.0
176
     1
 40
1.0
176
     1
  0
VISUALSTYLE
  5
2D
102
{ACAD_REACTORS
330
2A
102
}
330
2A
100
AcDbVisualStyle
  2
Gouraud
 70
     2
177
     3
291
     1
 70
    58
 90
        2
176
     1
 90
        2
176
     1
 90
        1
176
     1
 90
        2
176
     1
 40
0.6
176
     1
 40
30.0
176
     1
 62
     7
420
 16777215
176
     1
 90
        0
176
     1
 90
        0
176
     1
 62
     7
176
     1
 62
   257
176
     1
 90
        1
176
     1
 90
        1
176
     1
 40
1.0
176
     1
 90
        0
176
     1
 62
     7
176
     1
 40
1.0
176
     1
 90
        1
176
     1
 90
        6
176
     1
 90
        2
176
     1
 62
     7
176
     1
 90
        5
176
     1
 90
        0
176
     1
 90
        0
176
     1
290
     0
176
     1
 90
       13
176
     1
 40
0.0
176
     1
 90
        0
176
     1
290
     0
176
     1
290
     1
176
     1
290
     1
176
     1
290
     0
176
     1
290
     0
176
     1
290
     0
176
     1
290
     0
176
     1
290
     0
176
     1
290
     0
176
     1
 90
       50
176
     1
 40
0.0
176
     1
 40
1.0
176
     1
 90
        0
176
     1
 62
    18
420
        0
176
     1
 90
       50
176
     1
 90
        3
176
     1
 62
     5
420
      255
176
     1
290
     0
176
     1
 90
       50
176
     1
 90
       50
176
     1
 90
       50
176
     1
290
     0
176
     1
 90
       50
176
     1
 62
   256
176
     0
 40
1.0
176
     0
 90
        2
176
     1
  1
strokes_ogs.tif
176
     1
290
     0
176
     1
 40
1.0
176
     1
 40
1.0
176
     1
  0
VISUALSTYLE
  5
2E
102
{ACAD_REACTORS
330
2A
102
}
330
2A
100
AcDbVisualStyle
  2
GouraudWithEdges
 70
     3
177
     3
291
     1
 70
    58
 90
        2
176
     1
 90
        2
176
     1
 90
        1
176
     1
 90
        2
176
     1
 40
0.6
176
     1
 40
30.0
176
     1
 62
     7
420
 16777215
176
     1
 90
        1
176
     1
 90
        0
176
     1
 62
     7
176
     1
 62
   257
176
     1
 90
        1
176
     1
 90
        1
176
     1
 40
1.0
176
     1
 90
        0
176
     1
 62
   257
176
     1
 40
1.0
176
     1
 90
        1
176
     1
 90
        6
176
     1
 90
        2
176
     1
 62
     7
176
     1
 90
        5
176
     1
 90
        0
176
     1
 90
        0
176
     1
290
     0
176
     1
 90
       13
176
     1
 40
0.0
176
     1
 90
        0
176
     1
290
     0
176
     1
290
     1
176
     1
290
     1
176
     1
290
     0
176
     1
290
     0
176
     1
290
     0
176
     1
290
     0
176
     1
290
     0
176
     1
290
     0
176
     1
 90
       50
176
     1
 40
0.0
176
     1
 40
1.0
176
     1
 90
        0
176
     1
 62
    18
420
        0
176
     1
 90
       50
176
     1
 90
        3
176
     1
 62
     5
420
      255
176
     1
290
     0
176
     1
 90
       50
176
     1
 90
       50
176
     1
 90
       50
176
     1
290
     0
176
     1
 90
       50
176
     1
 62
   256
176
     0
 40
1.0
176
     0
 90
        2
176
     1
  1
strokes_ogs.tif
176
     1
290
     0
176
     1
 40
1.0
176
     1
 40
1.0
176
     1
  0
VISUALSTYLE
  5
31
102
{ACAD_REACTORS
330
2A
102
}
330
2A
100
AcDbVisualStyle
  2
Hidden
 70
     6
177
     3
291
     0
 70
    58
 90
        1
176
     1
 90
        2
176
     1
 90
        2
176
     1
 90
        0
176
     1
 40
0.6
176
     1
 40
30.0
176
     1
 62
     7
420
 16777215
176
     1
 90
        2
176
     1
 90
        2
176
     1
 62
     7
176
     1
 62
   257
176
     1
 90
        2
176
     1
 90
        1
176
     1
 40
40.0
176
     1
 90
        0
176
     1
 62
   257
176
     1
 40
1.0
176
     1
 90
        1
176
     1
 90
        6
176
     1
 90
        2
176
     1
 62
     7
176
     1
 90
        3
176
     1
 90
        0
176
     1
 90
        0
176
     1
290
     0
176
     1
 90
        1
176
     1
 40
0.0
176
     1
 90
        0
176
     1
290
     0
176
     1
290
     1
176
     1
290
     1
176
     1
290
     0
176
     1
290
     0
176
     1
290
     0
176
     1
290
     0
176
     1
290
     0
176
     1
290
     0
176
     1
 90
       50
176
     1
 40
0.0
176
     1
 40
1.0
176
     1
 90
        0
176
     1
 62
    18
420
        0
176
     1
 90
       50
176
     1
 90
        3
176
     1
 62
     5
420
      255
176
     1
290
     0
176
     1
 90
       50
176
     1
 90
       50
176
     1
 90
       50
176
     1
290
     0
176
     1
 90
       50
176
     1
 62
   256
176
     0
 40
1.0
176
     0
 90
        2
176
     1
  1
strokes_ogs.tif
176
     1
290
     0
176
     1
 40
1.0
176
     1
 40
1.0
176
     1
  0
VISUALSTYLE
  5
3B
102
{ACAD_REACTORS
330
2A
102
}
330
2A
100
AcDbVisualStyle
  2
JitterOff
 70
    20
177
     3
291
     1
 70
    58
 90
        2
176
     0
 90
        2
176
     0
 90
        0
176
     0
 90
        0
176
     0
 40
0.6
176
     0
 40
30.0
176
     0
 62
     7
420
 16777215
176
     0
 90
        1
176
     0
 90
        4
176
     0
 62
     7
176
     0
 62
   257
176
     0
 90
        1
176
     0
 90
        1
176
     0
 40
1.0
176
     0
 90
       10
176
     2
 62
     7
176
     0
 40
1.0
176
     0
 90
        1
176
     0
 90
        6
176
     0
 90
        2
176
     0
 62
     7
176
     0
 90
        5
176
     0
 90
        0
176
     0
 90
        0
176
     0
290
     0
176
     0
 90
        1
176
     0
 40
0.0
176
     0
 90
        0
176
     0
290
     0
176
     0
290
     1
176
     0
290
     1
176
     0
290
     0
176
     0
290
     0
176
     0
290
     0
176
     0
290
     0
176
     0
290
     0
176
     0
290
     0
176
     0
 90
       50
176
     0
 40
0.0
176
     0
 40
1.0
176
     0
 90
        0
176
     0
 62
    18
420
        0
176
     0
 90
       50
176
     0
 90
        3
176
     0
 62
     5
420
      255
176
     0
290
     0
176
     0
 90
       50
176
     0
 90
       50
176
     0
 90
       50
176
     0
290
     0
176
     0
 90
       50
176
     0
 62
   256
176
     0
 40
1.0
176
     0
 90
        2
176
     0
  1
strokes_ogs.tif
176
     0
290
     0
176
     0
 40
1.0
176
     0
 40
1.0
176
     0
  0
VISUALSTYLE
  5
38
102
{ACAD_REACTORS
330
2A
102
}
330
2A
100
AcDbVisualStyle
  2
Linepattern
 70
    14
177
     3
291
     1
 70
    58
 90
        2
176
     1
 90
        2
176
     1
 90
        0
176
     1
 90
        0
176
     1
 40
0.6
176
     1
 40
30.0
176
     1
 62
     7
420
 16777215
176
     1
 90
        1
176
     1
 90
        4
176
     1
 62
     7
176
     1
 62
   257
176
     1
 90
        7
176
     1
 90
        7
176
     1
 40
1.0
176
     1
 90
        8
176
     1
 62
     7
176
     1
 40
1.0
176
     1
 90
        1
176
     1
 90
        6
176
     1
 90
        2
176
     1
 62
     7
176
     1
 90
        5
176
     1
 90
        0
176
     1
 90
        0
176
     1
290
     0
176
     1
 90
        1
176
     1
 40
0.0
176
     1
 90
        0
176
     1
290
     0
176
     1
290
     1
176
     1
290
     1
176
     1
290
     0
176
     1
290
     0
176
     1
290
     0
176
     1
290
     0
176
     1
290
     0
176
     1
290
     0
176
     1
 90
       50
176
     1
 40
0.0
176
     1
 40
1.0
176
     1
 90
        0
176
     1
 62
    18
420
        0
176
     1
 90
       50
176
     1
 90
        3
176
     1
 62
     5
420
      255
176
     1
290
     0
176
     1
 90
       50
176
     1
 90
       50
176
     1
 90
       50
176
     1
290
     0
176
     1
 90
       50
176
     1
 62
   256
176
     0
 40
1.0
176
     0
 90
        2
176
     1
  1
strokes_ogs.tif
176
     1
290
     0
176
     1
 40
1.0
176
     1
 40
1.0
176
     1
  0
VISUALSTYLE
  5
3C
102
{ACAD_REACTORS
330
2A
102
}
330
2A
100
AcDbVisualStyle
  2
OverhangOff
 70
    21
177
     3
291
     1
 70
    58
 90
        2
176
     0
 90
        2
176
     0
 90
        0
176
     0
 90
        0
176
     0
 40
0.6
176
     0
 40
30.0
176
     0
 62
     7
420
 16777215
176
     0
 90
        1
176
     0
 90
        4
176
     0
 62
     7
176
     0
 62
   257
176
     0
 90
        1
176
     0
 90
        1
176
     0
 40
1.0
176
     0
 90
        9
176
     2
 62
     7
176
     0
 40
1.0
176
     0
 90
        1
176
     0
 90
        6
176
     0
 90
        2
176
     0
 62
     7
176
     0
 90
        5
176
     0
 90
        0
176
     0
 90
        0
176
     0
290
     0
176
     0
 90
        1
176
     0
 40
0.0
176
     0
 90
        0
176
     0
290
     0
176
     0
290
     1
176
     0
290
     1
176
     0
290
     0
176
     0
290
     0
176
     0
290
     0
176
     0
290
     0
176
     0
290
     0
176
     0
290
     0
176
     0
 90
       50
176
     0
 40
0.0
176
     0
 40
1.0
176
     0
 90
        0
176
     0
 62
    18
420
        0
176
     0
 90
       50
176
     0
 90
        3
176
     0
 62
     5
420
      255
176
     0
290
     0
176
     0
 90
       50
176
     0
 90
       50
176
     0
 90
       50
176
     0
290
     0
176
     0
 90
       50
176
     0
 62
   256
176
     0
 40
1.0
176
     0
 90
        2
176
     0
  1
strokes_ogs.tif
176
     0
290
     0
176
     0
 40
1.0
176
     0
 40
1.0
176
     0
  0
VISUALSTYLE
  5
33
102
{ACAD_REACTORS
330
2A
102
}
330
2A
100
AcDbVisualStyle
  2
Realistic
 70
     8
177
     3
291
     0
 70
    58
 90
        2
176
     1
 90
        3
176
     1
 90
        0
176
     1
 90
        2
176
     1
 40
0.6
176
     1
 40
30.0
176
     1
 62
     7
420
 16777215
176
     1
 90
        0
176
     1
 90
        0
176
     1
 62
     7
176
     1
 62
   257
176
     1
 90
        1
176
     1
 90
        1
176
     1
 40
1.0
176
     1
 90
        8
176
     1
 62
   257
176
     1
 40
1.0
176
     1
 90
        1
176
     1
 90
        6
176
     1
 90
        2
176
     1
 62
     7
176
     1
 90
        3
176
     1
 90
        0
176
     1
 90
        0
176
     1
290
     0
176
     1
 90
       13
176
     1
 40
0.0
176
     1
 90
        0
176
     1
290
     0
176
     1
290
     1
176
     1
290
     1
176
     1
290
     0
176
     1
290
     0
176
     1
290
     0
176
     1
290
     0
176
     1
290
     0
176
     1
290
     0
176
     1
 90
       50
176
     1
 40
0.0
176
     1
 40
1.0
176
     1
 90
        0
176
     1
 62
    18
420
        0
176
     1
 90
       50
176
     1
 90
        3
176
     1
 62
     5
420
      255
176
     1
290
     0
176
     1
 90
       50
176
     1
 90
       50
176
     1
 90
       50
176
     1
290
     0
176
     1
 90
       50
176
     1
 62
   256
176
     0
 40
1.0
176
     0
 90
        2
176
     1
  1
strokes_ogs.tif
176
     1
290
     0
176
     1
 40
1.0
176
     1
 40
1.0
176
     1
  0
VISUALSTYLE
  5
42
102
{ACAD_REACTORS
330
2A
102
}
330
2A
100
AcDbVisualStyle
  2
Shaded
 70
    27
177
     3
291
     0
 70
    58
 90
        2
176
     1
 90
        2
176
     1
 90
        1
176
     1
 90
        2
176
     1
 40
0.6
176
     1
 40
30.0
176
     1
 62
     7
420
 16777215
176
     1
 90
        0
176
     1
 90
        4
176
     1
 62
     7
176
     1
 62
   257
176
     1
 90
        1
176
     1
 90
        1
176
     1
 40
1.0
176
     1
 90
        8
176
     1
 62
   257
176
     1
 40
1.0
176
     1
 90
        1
176
     1
 90
        6
176
     1
 90
        2
176
     1
 62
     8
420
  7895160
176
     1
 90
        3
176
     1
 90
        0
176
     1
 90
        0
176
     1
290
     0
176
     1
 90
        5
176
     1
 40
0.0
176
     1
 90
        0
176
     1
290
     0
176
     1
290
     1
176
     1
290
     1
176
     1
290
     0
176
     1
290
     0
176
     1
290
     0
176
     1
290
     0
176
     1
290
     0
176
     1
290
     0
176
     1
 90
       50
176
     1
 40
0.0
176
     1
 40
1.0
176
     1
 90
        0
176
     1
 62
    18
420
        0
176
     1
 90
       50
176
     1
 90
        3
176
     1
 62
     5
420
      255
176
     1
290
     0
176
     1
 90
       50
176
     1
 90
       50
176
     1
 90
       50
176
     1
290
     0
176
     1
 90
       50
176
     1
 62
   256
176
     0
 40
1.0
176
     0
 90
        2
176
     1
  1
strokes_ogs.tif
176
     1
290
     0
176
     1
 40
1.0
176
     1
 40
1.0
176
     1
  0
VISUALSTYLE
  5
41
102
{ACAD_REACTORS
330
2A
102
}
330
2A
100
AcDbVisualStyle
  2
Shaded with edges
 70
    26
177
     3
291
     0
 70
    58
 90
        2
176
     1
 90
        2
176
     1
 90
        1
176
     1
 90
        2
176
     1
 40
0.6
176
     1
 40
30.0
176
     1
 62
     7
420
 16777215
176
     1
 90
        1
176
     1
 90
       10
176
     1
 62
     7
176
     1
 62
   257
176
     1
 90
        2
176
     1
 90
        1
176
     1
 40
1.0
176
     1
 90
        8
176
     1
 62
   257
176
     1
 40
1.0
176
     1
 90
        1
176
     1
 90
        6
176
     1
 90
        2
176
     1
 62
     7
176
     1
 90
        3
176
     1
 90
        0
176
     1
 90
        0
176
     1
290
     0
176
     1
 90
        5
176
     1
 40
0.0
176
     1
 90
        0
176
     1
290
     0
176
     1
290
     1
176
     1
290
     1
176
     1
290
     0
176
     1
290
     0
176
     1
290
     0
176
     1
290
     0
176
     1
290
     0
176
     1
290
     0
176
     1
 90
       50
176
     1
 40
0.0
176
     1
 40
1.0
176
     1
 90
        0
176
     1
 62
    18
420
        0
176
     1
 90
       50
176
     1
 90
        3
176
     1
 62
     5
420
      255
176
     1
290
     0
176
     1
 90
       50
176
     1
 90
       50
176
     1
 90
       50
176
     1
290
     0
176
     1
 90
       50
176
     1
 62
   256
176
     0
 40
1.0
176
     0
 90
        2
176
     1
  1
strokes_ogs.tif
176
     1
290
     0
176
     1
 40
1.0
176
     1
 40
1.0
176
     1
  0
VISUALSTYLE
  5
3E
102
{ACAD_REACTORS
330
2A
102
}
330
2A
100
AcDbVisualStyle
  2
Shades of Gray
 70
    23
177
     3
291
     0
 70
    58
 90
        2
176
     1
 90
        2
176
     1
 90
        3
176
     1
 90
        0
176
     1
 40
0.6
176
     1
 40
30.0
176
     1
 62
     7
420
 16777215
176
     1
 90
        2
176
     1
 90
        2
176
     1
 62
     7
176
     1
 62
     7
176
     1
 90
        1
176
     1
 90
        1
176
     1
 40
40.0
176
     1
 90
        8
176
     1
 62
     7
176
     1
 40
1.0
176
     1
 90
        1
176
     1
 90
        6
176
     1
 90
        2
176
     1
 62
     7
176
     1
 90
        3
176
     1
 90
        0
176
     1
 90
        0
176
     1
290
     0
176
     1
 90
        1
176
     1
 40
0.0
176
     1
 90
        0
176
     1
290
     0
176
     1
290
     1
176
     1
290
     1
176
     1
290
     0
176
     1
290
     0
176
     1
290
     0
176
     1
290
     0
176
     1
290
     0
176
     1
290
     0
176
     1
 90
       50
176
     1
 40
0.0
176
     1
 40
1.0
176
     1
 90
        0
176
     1
 62
    18
420
        0
176
     1
 90
       50
176
     1
 90
        3
176
     1
 62
     5
420
      255
176
     1
290
     0
176
     1
 90
       50
176
     1
 90
       50
176
     1
 90
       50
176
     1
290
     0
176
     1
 90
       50
176
     1
 62
   256
176
     0
 40
1.0
176
     0
 90
        2
176
     1
  1
strokes_ogs.tif
176
     1
290
     0
176
     1
 40
1.0
176
     1
 40
1.0
176
     1
  0
VISUALSTYLE
  5
3F
102
{ACAD_REACTORS
330
2A
102
}
330
2A
100
AcDbVisualStyle
  2
Sketchy
 70
    24
177
     3
291
     0
 70
    58
 90
        1
176
     1
 90
        2
176
     1
 90
        2
176
     1
 90
        0
176
     1
 40
0.6
176
     1
 40
30.0
176
     1
 62
     7
420
 16777215
176
     1
 90
        2
176
     1
 90
        2
176
     1
 62
     7
176
     1
 62
     7
176
     1
 90
        1
176
     1
 90
        1
176
     1
 40
40.0
176
     1
 90
       11
176
     1
 62
     7
176
     1
 40
1.0
176
     1
 90
        1
176
     1
 90
        6
176
     1
 90
        2
176
     1
 62
     7
176
     1
 90
        6
176
     1
 90
        0
176
     1
 90
        0
176
     1
290
     0
176
     1
 90
        1
176
     1
 40
0.0
176
     1
 90
        0
176
     1
290
     0
176
     1
290
     1
176
     1
290
     1
176
     1
290
     0
176
     1
290
     0
176
     1
290
     0
176
     1
290
     0
176
     1
290
     0
176
     1
290
     0
176
     1
 90
       50
176
     1
 40
0.0
176
     1
 40
1.0
176
     1
 90
        0
176
     1
 62
    18
420
        0
176
     1
 90
       50
176
     1
 90
        3
176
     1
 62
     5
420
      255
176
     1
290
     0
176
     1
 90
       50
176
     1
 90
       50
176
     1
 90
       50
176
     1
290
     0
176
     1
 90
       50
176
     1
 62
   256
176
     0
 40
1.0
176
     0
 90
        2
176
     1
  1
strokes_ogs.tif
176
     1
290
     0
176
     1
 40
1.0
176
     1
 40
1.0
176
     1
  0
VISUALSTYLE
  5
37
102
{ACAD_REACTORS
330
2A
102
}
330
2A
100
AcDbVisualStyle
  2
Thicken
 70
    13
177
     3
291
     1
 70
    58
 90
        2
176
     1
 90
        2
176
     1
 90
        0
176
     1
 90
        0
176
     1
 40
0.6
176
     1
 40
30.0
176
     1
 62
     7
420
 16777215
176
     1
 90
        1
176
     1
 90
        4
176
     1
 62
     7
176
     1
 62
   257
176
     1
 90
        1
176
     1
 90
        1
176
     1
 40
1.0
176
     1
 90
       12
176
     1
 62
     7
176
     1
 40
1.0
176
     1
 90
        1
176
     1
 90
        6
176
     1
 90
        2
176
     1
 62
     7
176
     1
 90
        5
176
     1
 90
        0
176
     1
 90
        0
176
     1
290
     0
176
     1
 90
        1
176
     1
 40
0.0
176
     1
 90
        0
176
     1
290
     0
176
     1
290
     1
176
     1
290
     1
176
     1
290
     0
176
     1
290
     0
176
     1
290
     0
176
     1
290
     0
176
     1
290
     0
176
     1
290
     0
176
     1
 90
       50
176
     1
 40
0.0
176
     1
 40
1.0
176
     1
 90
        0
176
     1
 62
    18
420
        0
176
     1
 90
       50
176
     1
 90
        3
176
     1
 62
     5
420
      255
176
     1
290
     0
176
     1
 90
       50
176
     1
 90
       50
176
     1
 90
       50
176
     1
290
     0
176
     1
 90
       50
176
     1
 62
   256
176
     0
 40
1.0
176
     0
 90
        2
176
     1
  1
strokes_ogs.tif
176
     1
290
     0
176
     1
 40
1.0
176
     1
 40
1.0
176
     1
  0
VISUALSTYLE
  5
30
102
{ACAD_REACTORS
330
2A
102
}
330
2A
100
AcDbVisualStyle
  2
Wireframe
 70
     5
177
     3
291
     0
 70
    58
 90
        0
176
     1
 90
        2
176
     1
 90
        0
176
     1
 90
        0
176
     1
 40
0.6
176
     1
 40
30.0
176
     1
 62
     7
420
 16777215
176
     1
 90
        1
176
     1
 90
        4
176
     1
 62
     7
176
     1
 62
   257
176
     1
 90
        1
176
     1
 90
        1
176
     1
 40
1.0
176
     1
 90
        0
176
     1
 62
   257
176
     1
 40
1.0
176
     1
 90
        1
176
     1
 90
        6
176
     1
 90
        2
176
     1
 62
     7
176
     1
 90
        3
176
     1
 90
        0
176
     1
 90
        0
176
     1
290
     0
176
     1
 90
        1
176
     1
 40
0.0
176
     1
 90
        0
176
     1
290
     0
176
     1
290
     1
176
     1
290
     1
176
     1
290
     0
176
     1
290
     0
176
     1
290
     0
176
     1
290
     0
176
     1
290
     0
176
     1
290
     0
176
     1
 90
       50
176
     1
 40
0.0
176
     1
 40
1.0
176
     1
 90
        0
176
     1
 62
    18
420
        0
176
     1
 90
       50
176
     1
 90
        3
176
     1
 62
     5
420
      255
176
     1
290
     0
176
     1
 90
       50
176
     1
 90
       50
176
     1
 90
       50
176
     1
290
     0
176
     1
 90
       50
176
     1
 62
   256
176
     0
 40
1.0
176
     0
 90
        2
176
     1
  1
strokes_ogs.tif
176
     1
290
     0
176
     1
 40
1.0
176
     1
 40
1.0
176
     1
  0
VISUALSTYLE
  5
40
102
{ACAD_REACTORS
330
2A
102
}
330
2A
100
AcDbVisualStyle
  2
X-Ray
 70
    25
177
     3
291
     0
 70
    58
 90
        2
176
     1
 90
        2
176
     1
 90
        1
176
     1
 90
        1
176
     1
 40
0.5
176
     1
 40
30.0
176
     1
 62
     7
420
 16777215
176
     1
 90
        1
176
     1
 90
        0
176
     1
 62
     7
176
     1
 62
   257
176
     1
 90
        1
176
     1
 90
        1
176
     1
 40
1.0
176
     1
 90
        8
176
     1
 62
     7
176
     1
 40
1.0
176
     1
 90
        1
176
     1
 90
        6
176
     1
 90
        2
176
     1
 62
     7
176
     1
 90
        3
176
     1
 90
        0
176
     1
 90
        0
176
     1
290
     0
176
     1
 90
       13
176
     1
 40
0.0
176
     1
 90
        0
176
     1
290
     0
176
     1
290
     1
176
     1
290
     1
176
     1
290
     0
176
     1
290
     0
176
     1
290
     0
176
     1
290
     0
176
     1
290
     0
176
     1
290
     0
176
     1
 90
       50
176
     1
 40
0.0
176
     1
 40
1.0
176
     1
 90
        0
176
     1
 62
    18
420
        0
176
     1
 90
       50
176
     1
 90
        3
176
     1
 62
     5
420
      255
176
     1
290
     0
176
     1
 90
       50
176
     1
 90
       50
176
     1
 90
       50
176
     1
290
     0
176
     1
 90
       50
176
     1
 62
   256
176
     0
 40
1.0
176
     0
 90
        2
176
     1
  1
strokes_ogs.tif
176
     1
290
     0
176
     1
 40
1.0
176
     1
 40
1.0
176
     1
  0
DICTIONARYVAR
  5
353
102
{ACAD_REACTORS
330
352
102
}
330
352
100
DictionaryVariables
280
     0
  1
1:1
  0
DICTIONARYVAR
  5
358
102
{ACAD_REACTORS
330
352
102
}
330
352
100
DictionaryVariables
280
     0
  1
Standard
  0
DICTIONARYVAR
  5
357
102
{ACAD_REACTORS
330
352
102
}
330
352
100
DictionaryVariables
280
     0
  1
Standard
  0
DICTIONARY
  5
354
330
6A
100
AcDbDictionary
280
     1
281
     1
  3
ACAD_ROUNDTRIP_2008_TABLESTYLE_CELLSTYLEMAP
360
355
  0
CELLSTYLEMAP
  5
355
102
{ACAD_REACTORS
330
354
102
}
330
354
100
AcDbCellStyleMap
 90
        3
300
CELLSTYLE
  1
TABLEFORMAT_BEGIN
 90
        5
170
     1
 91
        0
 92
    32768
 62
   257
 93
        1
300
CONTENTFORMAT
  1
CONTENTFORMAT_BEGIN
 90
        0
 91
        0
 92
        4
 93
        0
300

 40
0.0
140
1.0
 94
        5
 62
     0
340
11
144
0.25
309
CONTENTFORMAT_END
171
     1
301
MARGIN
  1
CELLMARGIN_BEGIN
 40
0.06
 40
0.06
 40
0.06
 40
0.06
 40
0.06
 40
0.06
309
CELLMARGIN_END
 94
        6
 95
        1
302
GRIDFORMAT
  1
GRIDFORMAT_BEGIN
 90
        0
 91
        1
 62
     0
 92
       -2
340
14
 93
        0
 40
0.045
309
GRIDFORMAT_END
 95
        2
302
GRIDFORMAT
  1
GRIDFORMAT_BEGIN
 90
        0
 91
        1
 62
     0
 92
       -2
340
14
 93
        0
 40
0.045
309
GRIDFORMAT_END
 95
        4
302
GRIDFORMAT
  1
GRIDFORMAT_BEGIN
 90
        0
 91
        1
 62
     0
 92
       -2
340
14
 93
        0
 40
0.045
309
GRIDFORMAT_END
 95
        8
302
GRIDFORMAT
  1
GRIDFORMAT_BEGIN
 90
        0
 91
        1
 62
     0
 92
       -2
340
14
 93
        0
 40
0.045
309
GRIDFORMAT_END
 95
       16
302
GRIDFORMAT
  1
GRIDFORMAT_BEGIN
 90
        0
 91
        1
 62
     0
 92
       -2
340
14
 93
        0
 40
0.045
309
GRIDFORMAT_END
 95
       32
302
GRIDFORMAT
  1
GRIDFORMAT_BEGIN
 90
        0
 91
        1
 62
     0
 92
       -2
340
14
 93
        0
 40
0.045
309
GRIDFORMAT_END
309
TABLEFORMAT_END
  1
CELLSTYLE_BEGIN
 90
        1
 91
        1
300
_TITLE
309
CELLSTYLE_END
300
CELLSTYLE
  1
TABLEFORMAT_BEGIN
 90
        5
170
     1
 91
        0
 92
        0
 62
   257
 93
        1
300
CONTENTFORMAT
  1
CONTENTFORMAT_BEGIN
 90
        0
 91
        0
 92
        4
 93
        0
300

 40
0.0
140
1.0
 94
        5
 62
     0
340
11
144
0.18
309
CONTENTFORMAT_END
171
     1
301
MARGIN
  1
CELLMARGIN_BEGIN
 40
0.06
 40
0.06
 40
0.06
 40
0.06
 40
0.06
 40
0.06
309
CELLMARGIN_END
 94
        6
 95
        1
302
GRIDFORMAT
  1
GRIDFORMAT_BEGIN
 90
        0
 91
        1
 62
     0
 92
       -2
340
14
 93
        0
 40
0.045
309
GRIDFORMAT_END
 95
        2
302
GRIDFORMAT
  1
GRIDFORMAT_BEGIN
 90
        0
 91
        1
 62
     0
 92
       -2
340
14
 93
        0
 40
0.045
309
GRIDFORMAT_END
 95
        4
302
GRIDFORMAT
  1
GRIDFORMAT_BEGIN
 90
        0
 91
        1
 62
     0
 92
       -2
340
14
 93
        0
 40
0.045
309
GRIDFORMAT_END
 95
        8
302
GRIDFORMAT
  1
GRIDFORMAT_BEGIN
 90
        0
 91
        1
 62
     0
 92
       -2
340
14
 93
        0
 40
0.045
309
GRIDFORMAT_END
 95
       16
302
GRIDFORMAT
  1
GRIDFORMAT_BEGIN
 90
        0
 91
        1
 62
     0
 92
       -2
340
14
 93
        0
 40
0.045
309
GRIDFORMAT_END
 95
       32
302
GRIDFORMAT
  1
GRIDFORMAT_BEGIN
 90
        0
 91
        1
 62
     0
 92
       -2
340
14
 93
        0
 40
0.045
309
GRIDFORMAT_END
309
TABLEFORMAT_END
  1
CELLSTYLE_BEGIN
 90
        2
 91
        1
300
_HEADER
309
CELLSTYLE_END
300
CELLSTYLE
  1
TABLEFORMAT_BEGIN
 90
        5
170
     1
 91
        0
 92
        0
 62
   257
 93
        1
300
CONTENTFORMAT
  1
CONTENTFORMAT_BEGIN
 90
        0
 91
        0
 92
        4
 93
        0
300

 40
0.0
140
1.0
 94
        2
 62
     0
340
11
144
0.18
309
CONTENTFORMAT_END
171
     1
301
MARGIN
  1
CELLMARGIN_BEGIN
 40
0.06
 40
0.06
 40
0.06
 40
0.06
 40
0.06
 40
0.06
309
CELLMARGIN_END
 94
        6
 95
        1
302
GRIDFORMAT
  1
GRIDFORMAT_BEGIN
 90
        0
 91
        1
 62
     0
 92
       -2
340
14
 93
        0
 40
0.045
309
GRIDFORMAT_END
 95
        2
302
GRIDFORMAT
  1
GRIDFORMAT_BEGIN
 90
        0
 91
        1
 62
     0
 92
       -2
340
14
 93
        0
 40
0.045
309
GRIDFORMAT_END
 95
        4
302
GRIDFORMAT
  1
GRIDFORMAT_BEGIN
 90
        0
 91
        1
 62
     0
 92
       -2
340
14
 93
        0
 40
0.045
309
GRIDFORMAT_END
 95
        8
302
GRIDFORMAT
  1
GRIDFORMAT_BEGIN
 90
        0
 91
        1
 62
     0
 92
       -2
340
14
 93
        0
 40
0.045
309
GRIDFORMAT_END
 95
       16
302
GRIDFORMAT
  1
GRIDFORMAT_BEGIN
 90
        0
 91
        1
 62
     0
 92
       -2
340
14
 93
        0
 40
0.045
309
GRIDFORMAT_END
 95
       32
302
GRIDFORMAT
  1
GRIDFORMAT_BEGIN
 90
        0
 91
        1
 62
     0
 92
       -2
340
14
 93
        0
 40
0.045
309
GRIDFORMAT_END
309
TABLEFORMAT_END
  1
CELLSTYLE_BEGIN
 90
        3
 91
        2
300
_DATA
309
CELLSTYLE_END
  0
ENDSEC
  0
EOF
