 0
SECTION
 2
ENTITIES
  0
POLYLINE
 8
Component#47
 66
     1
70
    8
 10
0.0
 20
 0.0
 30
0.0
  0
VERTEX
  8
MY3DLAYER
10
4.630957034965695
20
31.39490646007809
30
9.741096818061121e-13
 70
     32
  0
VERTEX
  8
MY3DLAYER
10
4.634391282394828
20
31.36882076104413
30
9.741096818061121e-13
 70
     32
  0
VERTEX
  8
MY3DLAYER
10
4.630957034965695
20
31.34273506201018
30
9.741096818061121e-13
 70
     32
  0
VERTEX
  8
MY3DLAYER
10
4.620888330965231
20
31.31842706025673
30
9.741096818061121e-13
 70
     32
  0
VERTEX
  8
MY3DLAYER
10
4.604871335931742
20
31.297553305932418
30
9.741096818061121e-13
 70
     32
  0
VERTEX
  8
MY3DLAYER
10
4.583997581607429
20
31.28153631089893
30
9.741096818061121e-13
 70
     32
  0
VERTEX
  8
MY3DLAYER
10
4.559689579853982
20
31.271467606898465
30
9.741096818061121e-13
 70
     32
  0
VERTEX
  8
MY3DLAYER
10
4.53360388082003
20
31.268033359469328
30
9.741096818061121e-13
 70
     32
  0
VERTEX
  8
MY3DLAYER
10
4.507518181786073
20
31.27146760689846
30
9.741096818061121e-13
 70
     32
  0
VERTEX
  8
MY3DLAYER
10
4.483210180032627
20
31.28153631089893
30
9.741096818061121e-13
 70
     32
  0
VERTEX
  8
MY3DLAYER
10
4.462336425708314
20
31.297553305932418
30
9.741096818061121e-13
 70
     32
  0
VERTEX
  8
MY3DLAYER
10
4.446319430674825
20
31.31842706025673
30
9.741096818061121e-13
 70
     32
  0
VERTEX
  8
MY3DLAYER
10
4.436250726674357
20
31.342735062010178
30
9.741096818061121e-13
 70
     32
  0
VERTEX
  8
MY3DLAYER
10
4.432816479245224
20
31.36882076104413
30
9.741096818061121e-13
 70
     32
  0
VERTEX
  8
MY3DLAYER
10
4.436250726674357
20
31.394906460078086
30
9.741096818061121e-13
 70
     32
  0
VERTEX
  8
MY3DLAYER
10
4.446319430674825
20
31.419214461831533
30
9.741096818061121e-13
 70
     32
  0
VERTEX
  8
MY3DLAYER
10
4.462336425708314
20
31.440088216155846
30
9.741096818061121e-13
 70
     32
  0
VERTEX
  8
MY3DLAYER
10
4.483210180032627
20
31.456105211189335
30
9.741096818061121e-13
 70
     32
  0
VERTEX
  8
MY3DLAYER
10
4.507518181786073
20
31.466173915189803
30
9.741096818061121e-13
 70
     32
  0
VERTEX
  8
MY3DLAYER
10
4.53360388082003
20
31.469608162618936
30
9.741096818061121e-13
 70
     32
  0
VERTEX
  8
MY3DLAYER
10
4.559689579853982
20
31.466173915189803
30
9.741096818061121e-13
 70
     32
  0
VERTEX
  8
MY3DLAYER
10
4.583997581607425
20
31.45610521118934
30
9.741096818061121e-13
 70
     32
  0
VERTEX
  8
MY3DLAYER
10
4.604871335931739
20
31.440088216155846
30
9.741096818061121e-13
 70
     32
  0
VERTEX
  8
MY3DLAYER
10
4.620888330965231
20
31.419214461831533
30
9.741096818061121e-13
 70
     32
  0
VERTEX
  8
MY3DLAYER
10
4.630957034965695
20
31.39490646007809
30
9.741096818061121e-13
 70
     32
  0
SEQEND
  0
POLYLINE
 8
Component#47
 66
     1
70
    8
 10
0.0
 20
 0.0
 30
0.0
  0
VERTEX
  8
MY3DLAYER
10
4.604871335931739
20
33.21162049962043
30
9.741096818061121e-13
 70
     32
  0
VERTEX
  8
MY3DLAYER
10
4.6208883309652276
20
33.19074674529612
30
9.741096818061121e-13
 70
     32
  0
VERTEX
  8
MY3DLAYER
10
4.630957034965695
20
33.16643874354267
30
9.741096818061121e-13
 70
     32
  0
VERTEX
  8
MY3DLAYER
10
4.634391282394828
20
33.140353044508714
30
9.741096818061121e-13
 70
     32
  0
VERTEX
  8
MY3DLAYER
10
4.630957034965695
20
33.11426734547476
30
9.741096818061121e-13
 70
     32
  0
VERTEX
  8
MY3DLAYER
10
4.6208883309652276
20
33.08995934372131
30
9.741096818061121e-13
 70
     32
  0
VERTEX
  8
MY3DLAYER
10
4.604871335931739
20
33.069085589397
30
9.741096818061121e-13
 70
     32
  0
VERTEX
  8
MY3DLAYER
10
4.583997581607425
20
33.05306859436351
30
9.741096818061121e-13
 70
     32
  0
VERTEX
  8
MY3DLAYER
10
4.559689579853979
20
33.04299989036304
30
9.741096818061121e-13
 70
     32
  0
VERTEX
  8
MY3DLAYER
10
4.53360388082003
20
33.03956564293391
30
9.741096818061121e-13
 70
     32
  0
VERTEX
  8
MY3DLAYER
10
4.507518181786073
20
33.04299989036304
30
9.741096818061121e-13
 70
     32
  0
VERTEX
  8
MY3DLAYER
10
4.483210180032627
20
33.05306859436351
30
9.741096818061121e-13
 70
     32
  0
VERTEX
  8
MY3DLAYER
10
4.462336425708314
20
33.069085589397
30
9.741096818061121e-13
 70
     32
  0
VERTEX
  8
MY3DLAYER
10
4.446319430674825
20
33.08995934372131
30
9.741096818061121e-13
 70
     32
  0
VERTEX
  8
MY3DLAYER
10
4.436250726674357
20
33.11426734547476
30
9.741096818061121e-13
 70
     32
  0
VERTEX
  8
MY3DLAYER
10
4.432816479245224
20
33.140353044508714
30
9.741096818061121e-13
 70
     32
  0
VERTEX
  8
MY3DLAYER
10
4.436250726674357
20
33.16643874354267
30
9.741096818061121e-13
 70
     32
  0
VERTEX
  8
MY3DLAYER
10
4.446319430674825
20
33.19074674529612
30
9.741096818061121e-13
 70
     32
  0
VERTEX
  8
MY3DLAYER
10
4.462336425708314
20
33.21162049962043
30
9.741096818061121e-13
 70
     32
  0
VERTEX
  8
MY3DLAYER
10
4.483210180032627
20
33.22763749465392
30
9.741096818061121e-13
 70
     32
  0
VERTEX
  8
MY3DLAYER
10
4.507518181786073
20
33.23770619865438
30
9.741096818061121e-13
 70
     32
  0
VERTEX
  8
MY3DLAYER
10
4.53360388082003
20
33.24114044608351
30
9.741096818061121e-13
 70
     32
  0
VERTEX
  8
MY3DLAYER
10
4.559689579853982
20
33.23770619865439
30
9.741096818061121e-13
 70
     32
  0
VERTEX
  8
MY3DLAYER
10
4.583997581607425
20
33.22763749465392
30
9.741096818061121e-13
 70
     32
  0
VERTEX
  8
MY3DLAYER
10
4.604871335931739
20
33.21162049962043
30
9.741096818061121e-13
 70
     32
  0
SEQEND
  0
POLYLINE
 8
Component#47
 66
     1
70
    8
 10
0.0
 20
 0.0
 30
0.0
  0
VERTEX
  8
MY3DLAYER
10
1.9241550619223897
20
32.302440644260194
30
9.741096818061121e-13
 70
     32
  0
VERTEX
  8
MY3DLAYER
10
1.9484630636758364
20
32.31250934826066
30
9.741096818061121e-13
 70
     32
  0
VERTEX
  8
MY3DLAYER
10
1.9745487627097926
20
32.315943595689795
30
9.741096818061121e-13
 70
     32
  0
VERTEX
  8
MY3DLAYER
10
2.000634461743749
20
32.31250934826066
30
9.741096818061121e-13
 70
     32
  0
VERTEX
  8
MY3DLAYER
10
2.0249424634971955
20
32.302440644260194
30
9.741096818061121e-13
 70
     32
  0
VERTEX
  8
MY3DLAYER
10
2.0458162178215087
20
32.286423649226705
30
9.741096818061121e-13
 70
     32
  0
VERTEX
  8
MY3DLAYER
10
2.061833212854994
20
32.26554989490239
30
9.741096818061121e-13
 70
     32
  0
VERTEX
  8
MY3DLAYER
10
2.0719019168554613
20
32.241241893148946
30
9.741096818061121e-13
 70
     32
  0
VERTEX
  8
MY3DLAYER
10
2.075336164284595
20
32.21515619411499
30
9.741096818061121e-13
 70
     32
  0
VERTEX
  8
MY3DLAYER
10
2.0719019168554613
20
32.18907049508104
30
9.741096818061121e-13
 70
     32
  0
VERTEX
  8
MY3DLAYER
10
2.061833212854994
20
32.16476249332759
30
9.741096818061121e-13
 70
     32
  0
VERTEX
  8
MY3DLAYER
10
2.0458162178215087
20
32.14388873900327
30
9.741096818061121e-13
 70
     32
  0
VERTEX
  8
MY3DLAYER
10
2.0249424634971955
20
32.12787174396979
30
9.741096818061121e-13
 70
     32
  0
VERTEX
  8
MY3DLAYER
10
2.000634461743749
20
32.117803039969324
30
9.741096818061121e-13
 70
     32
  0
VERTEX
  8
MY3DLAYER
10
1.9745487627097926
20
32.11436879254019
30
9.741096818061121e-13
 70
     32
  0
VERTEX
  8
MY3DLAYER
10
1.9484630636758364
20
32.117803039969324
30
9.741096818061121e-13
 70
     32
  0
VERTEX
  8
MY3DLAYER
10
1.9241550619223897
20
32.127871743969784
30
9.741096818061121e-13
 70
     32
  0
VERTEX
  8
MY3DLAYER
10
1.9032813075980766
20
32.14388873900327
30
9.741096818061121e-13
 70
     32
  0
VERTEX
  8
MY3DLAYER
10
1.8872643125645876
20
32.164762493327586
30
9.741096818061121e-13
 70
     32
  0
VERTEX
  8
MY3DLAYER
10
1.8771956085641204
20
32.18907049508103
30
9.741096818061121e-13
 70
     32
  0
VERTEX
  8
MY3DLAYER
10
1.8737613611349868
20
32.21515619411499
30
9.741096818061121e-13
 70
     32
  0
VERTEX
  8
MY3DLAYER
10
1.8771956085641204
20
32.241241893148946
30
9.741096818061121e-13
 70
     32
  0
VERTEX
  8
MY3DLAYER
10
1.8872643125645876
20
32.26554989490239
30
9.741096818061121e-13
 70
     32
  0
VERTEX
  8
MY3DLAYER
10
1.9032813075980766
20
32.286423649226705
30
9.741096818061121e-13
 70
     32
  0
VERTEX
  8
MY3DLAYER
10
1.9241550619223897
20
32.302440644260194
30
9.741096818061121e-13
 70
     32
  0
SEQEND
  0
POLYLINE
 8
Component#47
 66
     1
70
    8
 10
0.0
 20
 0.0
 30
0.0
  0
VERTEX
  8
MY3DLAYER
10
2.5737613611349826
20
31.16330481483594
30
9.741096818061121e-13
 70
     32
  0
VERTEX
  8
MY3DLAYER
10
2.552887606810673
20
31.17932180986943
30
9.741096818061121e-13
 70
     32
  0
VERTEX
  8
MY3DLAYER
10
2.5368706117771875
20
31.20019556419374
30
9.741096818061121e-13
 70
     32
  0
VERTEX
  8
MY3DLAYER
10
2.5268019077767203
20
31.224503565947188
30
9.741096818061121e-13
 70
     32
  0
VERTEX
  8
MY3DLAYER
10
2.5233676603475867
20
31.250589264981144
30
9.741096818061121e-13
 70
     32
  0
VERTEX
  8
MY3DLAYER
10
2.5268019077767203
20
31.2766749640151
30
9.741096818061121e-13
 70
     32
  0
VERTEX
  8
MY3DLAYER
10
2.536870611777184
20
31.300982965768547
30
9.741096818061121e-13
 70
     32
  0
VERTEX
  8
MY3DLAYER
10
2.552887606810673
20
31.32185672009286
30
9.741096818061121e-13
 70
     32
  0
VERTEX
  8
MY3DLAYER
10
2.573761361134986
20
31.33787371512635
30
9.741096818061121e-13
 70
     32
  0
VERTEX
  8
MY3DLAYER
10
2.598069362888433
20
31.347942419126813
30
9.741096818061121e-13
 70
     32
  0
VERTEX
  8
MY3DLAYER
10
2.6241550619223855
20
31.351376666555947
30
9.741096818061121e-13
 70
     32
  0
VERTEX
  8
MY3DLAYER
10
2.6502407609563416
20
31.347942419126813
30
9.741096818061121e-13
 70
     32
  0
VERTEX
  8
MY3DLAYER
10
2.6745487627097884
20
31.33787371512635
30
9.741096818061121e-13
 70
     32
  0
VERTEX
  8
MY3DLAYER
10
2.6954225170341015
20
31.32185672009286
30
9.741096818061121e-13
 70
     32
  0
VERTEX
  8
MY3DLAYER
10
2.7114395120675905
20
31.300982965768547
30
9.741096818061121e-13
 70
     32
  0
VERTEX
  8
MY3DLAYER
10
2.7215082160680577
20
31.2766749640151
30
9.741096818061121e-13
 70
     32
  0
VERTEX
  8
MY3DLAYER
10
2.7249424634971913
20
31.250589264981144
30
9.741096818061121e-13
 70
     32
  0
VERTEX
  8
MY3DLAYER
10
2.7215082160680577
20
31.22450356594719
30
9.741096818061121e-13
 70
     32
  0
VERTEX
  8
MY3DLAYER
10
2.7114395120675905
20
31.200195564193745
30
9.741096818061121e-13
 70
     32
  0
VERTEX
  8
MY3DLAYER
10
2.6954225170341015
20
31.17932180986943
30
9.741096818061121e-13
 70
     32
  0
VERTEX
  8
MY3DLAYER
10
2.6745487627097884
20
31.163304814835943
30
9.741096818061121e-13
 70
     32
  0
VERTEX
  8
MY3DLAYER
10
2.6502407609563416
20
31.153236110835476
30
9.741096818061121e-13
 70
     32
  0
VERTEX
  8
MY3DLAYER
10
2.6241550619223855
20
31.149801863406342
30
9.741096818061121e-13
 70
     32
  0
VERTEX
  8
MY3DLAYER
10
2.598069362888433
20
31.153236110835476
30
9.741096818061121e-13
 70
     32
  0
VERTEX
  8
MY3DLAYER
10
2.5737613611349826
20
31.16330481483594
30
9.741096818061121e-13
 70
     32
  0
SEQEND
  0
POLYLINE
 8
Component#47
 66
     1
70
    8
 10
0.0
 20
 0.0
 30
0.0
  0
VERTEX
  8
MY3DLAYER
10
0.990296794205852
20
31.760038083878783
30
9.741096818061121e-13
 70
     32
  0
VERTEX
  8
MY3DLAYER
10
0.9642110951718958
20
31.763472331307916
30
9.741096818061121e-13
 70
     32
  0
VERTEX
  8
MY3DLAYER
10
0.9399030934184491
20
31.77354103530838
30
9.741096818061121e-13
 70
     32
  0
VERTEX
  8
MY3DLAYER
10
0.919029339094136
20
31.78955803034187
30
9.741096818061121e-13
 70
     32
  0
VERTEX
  8
MY3DLAYER
10
0.9030123440606506
20
31.810431784666182
30
9.741096818061121e-13
 70
     32
  0
VERTEX
  8
MY3DLAYER
10
0.8929436400601833
20
31.834739786419632
30
9.741096818061121e-13
 70
     32
  0
VERTEX
  8
MY3DLAYER
10
0.8895093926310498
20
31.860825485453585
30
9.741096818061121e-13
 70
     32
  0
VERTEX
  8
MY3DLAYER
10
0.8929436400601798
20
31.88691118448754
30
9.741096818061121e-13
 70
     32
  0
VERTEX
  8
MY3DLAYER
10
0.903012344060647
20
31.911219186240988
30
9.741096818061121e-13
 70
     32
  0
VERTEX
  8
MY3DLAYER
10
0.919029339094136
20
31.932092940565298
30
9.741096818061121e-13
 70
     32
  0
VERTEX
  8
MY3DLAYER
10
0.9399030934184491
20
31.948109935598787
30
9.741096818061121e-13
 70
     32
  0
VERTEX
  8
MY3DLAYER
10
0.9642110951718958
20
31.95817863959925
30
9.741096818061121e-13
 70
     32
  0
VERTEX
  8
MY3DLAYER
10
0.990296794205852
20
31.961612887028387
30
9.741096818061121e-13
 70
     32
  0
VERTEX
  8
MY3DLAYER
10
1.0163824932398082
20
31.95817863959925
30
9.741096818061121e-13
 70
     32
  0
VERTEX
  8
MY3DLAYER
10
1.040690494993255
20
31.948109935598787
30
9.741096818061121e-13
 70
     32
  0
VERTEX
  8
MY3DLAYER
10
1.061564249317568
20
31.932092940565298
30
9.741096818061121e-13
 70
     32
  0
VERTEX
  8
MY3DLAYER
10
1.0775812443510535
20
31.911219186240988
30
9.741096818061121e-13
 70
     32
  0
VERTEX
  8
MY3DLAYER
10
1.0876499483515207
20
31.88691118448754
30
9.741096818061121e-13
 70
     32
  0
VERTEX
  8
MY3DLAYER
10
1.0910841957806579
20
31.860825485453585
30
9.741096818061121e-13
 70
     32
  0
VERTEX
  8
MY3DLAYER
10
1.0876499483515243
20
31.834739786419632
30
9.741096818061121e-13
 70
     32
  0
VERTEX
  8
MY3DLAYER
10
1.077581244351057
20
31.810431784666186
30
9.741096818061121e-13
 70
     32
  0
VERTEX
  8
MY3DLAYER
10
1.061564249317568
20
31.78955803034187
30
9.741096818061121e-13
 70
     32
  0
VERTEX
  8
MY3DLAYER
10
1.040690494993255
20
31.77354103530838
30
9.741096818061121e-13
 70
     32
  0
VERTEX
  8
MY3DLAYER
10
1.0163824932398082
20
31.763472331307916
30
9.741096818061121e-13
 70
     32
  0
VERTEX
  8
MY3DLAYER
10
0.990296794205852
20
31.760038083878783
30
9.741096818061121e-13
 70
     32
  0
SEQEND
  0
POLYLINE
 8
Component#47
 66
     1
70
    8
 10
0.0
 20
 0.0
 30
0.0
  0
VERTEX
  8
MY3DLAYER
10
3.4385115764959178
20
31.359048965636827
30
9.741096818061121e-13
 70
     32
  0
VERTEX
  8
MY3DLAYER
10
3.424003011711955
20
31.274447228730256
30
9.741096818061121e-13
 70
     32
  0
VERTEX
  8
MY3DLAYER
10
3.4043479103224907
20
31.1908910839588
30
9.741096818061121e-13
 70
     32
  0
VERTEX
  8
MY3DLAYER
10
3.3796198463240774
20
31.108693303024094
30
9.741096818061121e-13
 70
     32
  0
VERTEX
  8
MY3DLAYER
10
3.3499113830904346
20
31.02816157292971
30
9.741096818061121e-13
 70
     32
  0
VERTEX
  8
MY3DLAYER
10
3.31533372688442
20
30.94959734423116
30
9.741096818061121e-13
 70
     32
  0
VERTEX
  8
MY3DLAYER
10
3.2760163105849696
20
30.873294702630528
30
9.741096818061121e-13
 70
     32
  0
VERTEX
  8
MY3DLAYER
10
3.2321063091872144
20
30.79953926813958
30
9.741096818061121e-13
 70
     32
  0
VERTEX
  8
MY3DLAYER
10
3.183768088889403
20
30.72860712593212
30
9.741096818061121e-13
 70
     32
  0
VERTEX
  8
MY3DLAYER
10
3.1311825918288054
20
30.660763792887604
30
9.741096818061121e-13
 70
     32
  0
VERTEX
  8
MY3DLAYER
10
3.0745466587697035
20
30.596263223694578
30
9.741096818061121e-13
 70
     32
  0
VERTEX
  8
MY3DLAYER
10
3.014072292278824
20
30.53534686023429
30
9.741096818061121e-13
 70
     32
  0
VERTEX
  8
MY3DLAYER
10
2.949985863146301
20
30.478242727802904
30
9.741096818061121e-13
 70
     32
  0
VERTEX
  8
MY3DLAYER
10
2.8825272630227996
20
30.425164581555343
30
9.741096818061121e-13
 70
     32
  0
VERTEX
  8
MY3DLAYER
10
2.811949006444612
20
30.376311106365932
30
9.741096818061121e-13
 70
     32
  0
VERTEX
  8
MY3DLAYER
10
2.7385152856081216
20
30.33186517310081
30
9.741096818061121e-13
 70
     32
  0
VERTEX
  8
MY3DLAYER
10
2.6625009814318705
20
30.291993154086228
30
9.741096818061121e-13
 70
     32
  0
VERTEX
  8
MY3DLAYER
10
2.5841906346079977
20
30.25684430033502
30
9.741096818061121e-13
 70
     32
  0
VERTEX
  8
MY3DLAYER
10
2.5038773804947656
20
30.22655018286244
30
9.741096818061121e-13
 70
     32
  0
VERTEX
  8
MY3DLAYER
10
2.4218618518370416
20
30.201224200182715
30
9.741096818061121e-13
 70
     32
  0
VERTEX
  8
MY3DLAYER
10
2.33845105342221
20
30.180961153829834
30
9.741096818061121e-13
 70
     32
  0
VERTEX
  8
MY3DLAYER
10
2.2539572128838703
20
30.165836893491523
30
9.741096818061121e-13
 70
     32
  0
VERTEX
  8
MY3DLAYER
10
2.168696611955175
20
30.155908033084746
30
9.741096818061121e-13
 70
     32
  0
VERTEX
  8
MY3DLAYER
10
2.0829884025466026
20
30.15121173883556
30
9.741096818061121e-13
 70
     32
  0
VERTEX
  8
MY3DLAYER
10
1.9971534120799301
20
30.151765590156554
30
9.741096818061121e-13
 70
     32
  0
VERTEX
  8
MY3DLAYER
10
1.9115129425503934
20
30.157567513842693
30
9.741096818061121e-13
 70
     32
  0
VERTEX
  8
MY3DLAYER
10
1.8263875678123451
20
30.168595791831848
30
9.741096818061121e-13
 70
     32
  0
VERTEX
  8
MY3DLAYER
10
1.7420959335905533
20
30.184809142500946
30
9.741096818061121e-13
 70
     32
  0
VERTEX
  8
MY3DLAYER
10
1.6589535647089857
20
30.20614687519353
30
9.741096818061121e-13
 70
     32
  0
VERTEX
  8
MY3DLAYER
10
1.57727168400187
20
30.232529117400134
30
9.741096818061121e-13
 70
     32
  0
VERTEX
  8
MY3DLAYER
10
1.497356047328248
20
30.263857113741242
30
9.741096818061121e-13
 70
     32
  0
VERTEX
  8
MY3DLAYER
10
1.4195057990507305
20
30.300013595633537
30
9.741096818061121e-13
 70
     32
  0
VERTEX
  8
MY3DLAYER
10
1.344012352262796
20
30.340863220255766
30
9.741096818061121e-13
 70
     32
  0
VERTEX
  8
MY3DLAYER
10
1.2711582979561609
20
30.386253077171
30
9.741096818061121e-13
 70
     32
  0
VERTEX
  8
MY3DLAYER
10
1.2012163472114974
20
30.436013260708947
30
9.741096818061121e-13
 70
     32
  0
VERTEX
  8
MY3DLAYER
10
1.1344483103721377
20
30.489957505965663
30
9.741096818061121e-13
 70
     32
  0
VERTEX
  8
MY3DLAYER
10
1.0711041170220152
20
30.547883886040044
30
9.741096818061121e-13
 70
     32
  0
VERTEX
  8
MY3DLAYER
10
1.0114208804362494
20
30.609575567897057
30
9.741096818061121e-13
 70
     32
  0
VERTEX
  8
MY3DLAYER
10
0.9556220100064277
20
30.674801624028447
30
9.741096818061121e-13
 70
     32
  0
VERTEX
  8
MY3DLAYER
10
0.9443852086672546
20
30.687840474918865
30
9.741096818061121e-13
 70
     32
  0
VERTEX
  8
MY3DLAYER
10
0.8821612238139789
20
30.769982745825086
30
9.741096818061121e-13
 70
     32
  0
VERTEX
  8
MY3DLAYER
10
0.8249726816929748
20
30.85570699916524
30
9.741096818061121e-13
 70
     32
  0
VERTEX
  8
MY3DLAYER
10
0.7730252308008989
20
30.944704972774012
30
9.741096818061121e-13
 70
     32
  0
VERTEX
  8
MY3DLAYER
10
0.7265056728078729
20
31.036656632273914
30
9.741096818061121e-13
 70
     32
  0
VERTEX
  8
MY3DLAYER
10
0.6855812908236114
20
31.13123132191051
30
9.741096818061121e-13
 70
     32
  0
VERTEX
  8
MY3DLAYER
10
0.6503992478517286
20
31.22808895358183
30
9.741096818061121e-13
 70
     32
  0
VERTEX
  8
MY3DLAYER
10
0.6210860575954609
20
31.32688122978626
30
9.741096818061121e-13
 70
     32
  0
VERTEX
  8
MY3DLAYER
10
0.5977471295176908
20
31.42725289609121
30
9.741096818061121e-13
 70
     32
  0
VERTEX
  8
MY3DLAYER
10
0.5804663897912885
20
31.528843018618755
30
9.741096818061121e-13
 70
     32
  0
VERTEX
  8
MY3DLAYER
10
0.5693059795028059
20
31.631286281954342
30
9.741096818061121e-13
 70
     32
  0
VERTEX
  8
MY3DLAYER
10
0.5643060311947554
20
31.73421430281149
30
9.741096818061121e-13
 70
     32
  0
VERTEX
  8
MY3DLAYER
10
0.556798104992934
20
31.8113418496321
30
9.741096818061121e-13
 70
     32
  0
VERTEX
  8
MY3DLAYER
10
0.5556996864632833
20
31.888826176506292
30
9.741096818061121e-13
 70
     32
  0
VERTEX
  8
MY3DLAYER
10
0.5610183134260591
20
31.96613555266236
30
9.741096818061121e-13
 70
     32
  0
VERTEX
  8
MY3DLAYER
10
0.5694153907728587
20
32.01573659206782
30
9.741096818061121e-13
 70
     32
  0
VERTEX
  8
MY3DLAYER
10
0.5778715158657963
20
32.06054311874116
30
9.741096818061121e-13
 70
     32
  0
VERTEX
  8
MY3DLAYER
10
0.5899123248411069
20
32.10452208875337
30
9.741096818061121e-13
 70
     32
  0
VERTEX
  8
MY3DLAYER
10
0.6054594339637003
20
32.1473872060639
30
9.741096818061121e-13
 70
     32
  0
VERTEX
  8
MY3DLAYER
10
0.6244116340469343
20
32.188859425634604
30
9.741096818061121e-13
 70
     32
  0
VERTEX
  8
MY3DLAYER
10
0.646645549308202
20
32.228668769968195
30
9.741096818061121e-13
 70
     32
  0
VERTEX
  8
MY3DLAYER
10
0.6720164405254518
20
32.26655608661846
30
9.741096818061121e-13
 70
     32
  0
VERTEX
  8
MY3DLAYER
10
0.7003591472663455
20
32.30227473523113
30
9.741096818061121e-13
 70
     32
  0
VERTEX
  8
MY3DLAYER
10
0.7314891630561586
20
32.33559219313298
30
9.741096818061121e-13
 70
     32
  0
VERTEX
  8
MY3DLAYER
10
0.7652038364853393
20
32.366291569017186
30
9.741096818061121e-13
 70
     32
  0
VERTEX
  8
MY3DLAYER
10
0.8012836904376837
20
32.39417301487089
30
9.741096818061121e-13
 70
     32
  0
VERTEX
  8
MY3DLAYER
10
0.8394938508511469
20
32.419055026953764
30
9.741096818061121e-13
 70
     32
  0
VERTEX
  8
MY3DLAYER
10
0.8795855757103386
20
32.44077562735822
30
9.741096818061121e-13
 70
     32
  0
VERTEX
  8
MY3DLAYER
10
3.4902967923053776
20
33.50661606396315
30
9.741096818061121e-13
 70
     32
  0
VERTEX
  8
MY3DLAYER
10
5.124155060021911
20
33.78220661514425
30
9.741096818061121e-13
 70
     32
  0
VERTEX
  8
MY3DLAYER
10
5.124155060026277
20
30.71894784505903
30
9.741096818061121e-13
 70
     32
  0
VERTEX
  8
MY3DLAYER
10
4.651714115144388
20
30.71894784505903
30
9.741096818061121e-13
 70
     32
  0
VERTEX
  8
MY3DLAYER
10
4.625103623527236
20
30.72012703417149
30
9.741096818061121e-13
 70
     32
  0
VERTEX
  8
MY3DLAYER
10
4.598701735632675
20
30.72365535766468
30
9.741096818061121e-13
 70
     32
  0
VERTEX
  8
MY3DLAYER
10
4.572715419906741
20
30.729505156469912
30
9.741096818061121e-13
 70
     32
  0
VERTEX
  8
MY3DLAYER
10
4.547348387061552
20
30.737630573117713
30
9.741096818061121e-13
 70
     32
  0
VERTEX
  8
MY3DLAYER
10
4.5227994931557784
20
30.74796791122153
30
9.741096818061121e-13
 70
     32
  0
VERTEX
  8
MY3DLAYER
10
4.499261180731564
20
30.760436134803477
30
9.741096818061121e-13
 70
     32
  0
VERTEX
  8
MY3DLAYER
10
4.476917970227904
20
30.774937503547797
30
9.741096818061121e-13
 70
     32
  0
VERTEX
  8
MY3DLAYER
10
4.455945013496665
20
30.791358339002155
30
9.741096818061121e-13
 70
     32
  0
VERTEX
  8
MY3DLAYER
10
4.436506720760361
20
30.809569915720473
30
9.741096818061121e-13
 70
     32
  0
VERTEX
  8
MY3DLAYER
10
4.418755471775205
20
30.82942947036142
30
9.741096818061121e-13
 70
     32
  0
VERTEX
  8
MY3DLAYER
10
4.402830421302886
20
30.850781320832127
30
9.741096818061121e-13
 70
     32
  0
VERTEX
  8
MY3DLAYER
10
4.388856408255007
20
30.87345808670399
30
9.741096818061121e-13
 70
     32
  0
VERTEX
  8
MY3DLAYER
10
4.345761544887372
20
30.945670228829428
30
9.741096818061121e-13
 70
     32
  0
VERTEX
  8
MY3DLAYER
10
4.2963819010544295
20
31.013739395813836
30
9.741096818061121e-13
 70
     32
  0
VERTEX
  8
MY3DLAYER
10
4.241113132728772
20
31.077120181283757
30
9.741096818061121e-13
 70
     32
  0
VERTEX
  8
MY3DLAYER
10
4.180398082680972
20
31.135304744672275
30
9.741096818061121e-13
 70
     32
  0
VERTEX
  8
MY3DLAYER
10
4.114723232187769
20
31.187826880307785
30
9.741096818061121e-13
 70
     32
  0
VERTEX
  8
MY3DLAYER
10
4.044614803085315
20
31.23426575290182
30
9.741096818061121e-13
 70
     32
  0
VERTEX
  8
MY3DLAYER
10
3.9706345413998942
20
31.274249269505237
30
9.741096818061121e-13
 70
     32
  0
VERTEX
  8
MY3DLAYER
10
3.89337521633996
20
31.30745706091483
30
9.741096818061121e-13
 70
     32
  0
VERTEX
  8
MY3DLAYER
10
3.8134558707139465
20
31.333623048641833
30
9.741096818061121e-13
 70
     32
  0
VERTEX
  8
MY3DLAYER
10
3.7315168608299896
20
31.352537576874262
30
9.741096818061121e-13
 70
     32
  0
VERTEX
  8
MY3DLAYER
10
3.648214725620546
20
31.364049092350847
30
9.741096818061121e-13
 70
     32
  0
VERTEX
  8
MY3DLAYER
10
3.5642169261032866
20
31.368065358686337
30
9.741096818061121e-13
 70
     32
  0
VERTEX
  8
MY3DLAYER
10
3.4801964973283415
20
31.364554195418513
30
9.741096818061121e-13
 70
     32
  0
VERTEX
  8
MY3DLAYER
10
3.4385115764959178
20
31.359048965636827
30
9.741096818061121e-13
 70
     32
  0
SEQEND
  0
POLYLINE
 8
Component#47
 66
     1
70
    8
 10
0.0
 20
 0.0
 30
0.0
  0
VERTEX
  8
MY3DLAYER
10
1.9484630636758364
20
32.31250934826066
30
9.741096818061121e-13
 70
     32
  0
VERTEX
  8
MY3DLAYER
10
1.9241550619223897
20
32.302440644260194
30
9.741096818061121e-13
 70
     32
  0
VERTEX
  8
MY3DLAYER
10
1.9032813075980766
20
32.286423649226705
30
9.741096818061121e-13
 70
     32
  0
VERTEX
  8
MY3DLAYER
10
1.8872643125645876
20
32.26554989490239
30
9.741096818061121e-13
 70
     32
  0
VERTEX
  8
MY3DLAYER
10
1.8771956085641204
20
32.241241893148946
30
9.741096818061121e-13
 70
     32
  0
VERTEX
  8
MY3DLAYER
10
1.8737613611349868
20
32.21515619411499
30
9.741096818061121e-13
 70
     32
  0
VERTEX
  8
MY3DLAYER
10
1.8771956085641204
20
32.18907049508103
30
9.741096818061121e-13
 70
     32
  0
VERTEX
  8
MY3DLAYER
10
1.8872643125645876
20
32.164762493327586
30
9.741096818061121e-13
 70
     32
  0
VERTEX
  8
MY3DLAYER
10
1.9032813075980766
20
32.14388873900327
30
9.741096818061121e-13
 70
     32
  0
VERTEX
  8
MY3DLAYER
10
1.9241550619223897
20
32.127871743969784
30
9.741096818061121e-13
 70
     32
  0
VERTEX
  8
MY3DLAYER
10
1.9484630636758364
20
32.117803039969324
30
9.741096818061121e-13
 70
     32
  0
VERTEX
  8
MY3DLAYER
10
1.9745487627097926
20
32.11436879254019
30
9.741096818061121e-13
 70
     32
  0
VERTEX
  8
MY3DLAYER
10
2.000634461743749
20
32.117803039969324
30
9.741096818061121e-13
 70
     32
  0
VERTEX
  8
MY3DLAYER
10
2.0249424634971955
20
32.12787174396979
30
9.741096818061121e-13
 70
     32
  0
VERTEX
  8
MY3DLAYER
10
2.0458162178215087
20
32.14388873900327
30
9.741096818061121e-13
 70
     32
  0
VERTEX
  8
MY3DLAYER
10
2.061833212854994
20
32.16476249332759
30
9.741096818061121e-13
 70
     32
  0
VERTEX
  8
MY3DLAYER
10
2.0719019168554613
20
32.18907049508104
30
9.741096818061121e-13
 70
     32
  0
VERTEX
  8
MY3DLAYER
10
2.075336164284595
20
32.21515619411499
30
9.741096818061121e-13
 70
     32
  0
VERTEX
  8
MY3DLAYER
10
2.0719019168554613
20
32.241241893148946
30
9.741096818061121e-13
 70
     32
  0
VERTEX
  8
MY3DLAYER
10
2.061833212854994
20
32.26554989490239
30
9.741096818061121e-13
 70
     32
  0
VERTEX
  8
MY3DLAYER
10
2.0458162178215087
20
32.286423649226705
30
9.741096818061121e-13
 70
     32
  0
VERTEX
  8
MY3DLAYER
10
2.0249424634971955
20
32.302440644260194
30
9.741096818061121e-13
 70
     32
  0
VERTEX
  8
MY3DLAYER
10
2.000634461743749
20
32.31250934826066
30
9.741096818061121e-13
 70
     32
  0
VERTEX
  8
MY3DLAYER
10
1.9745487627097926
20
32.315943595689795
30
9.741096818061121e-13
 70
     32
  0
VERTEX
  8
MY3DLAYER
10
1.9484630636758364
20
32.31250934826066
30
9.741096818061121e-13
 70
     32
  0
SEQEND
  0
POLYLINE
 8
Component#47
 66
     1
70
    8
 10
0.0
 20
 0.0
 30
0.0
  0
VERTEX
  8
MY3DLAYER
10
4.6208883309652276
20
33.19074674529612
30
9.741096818061121e-13
 70
     32
  0
VERTEX
  8
MY3DLAYER
10
4.604871335931739
20
33.21162049962043
30
9.741096818061121e-13
 70
     32
  0
VERTEX
  8
MY3DLAYER
10
4.583997581607425
20
33.22763749465392
30
9.741096818061121e-13
 70
     32
  0
VERTEX
  8
MY3DLAYER
10
4.559689579853982
20
33.23770619865439
30
9.741096818061121e-13
 70
     32
  0
VERTEX
  8
MY3DLAYER
10
4.53360388082003
20
33.24114044608351
30
9.741096818061121e-13
 70
     32
  0
VERTEX
  8
MY3DLAYER
10
4.507518181786073
20
33.23770619865438
30
9.741096818061121e-13
 70
     32
  0
VERTEX
  8
MY3DLAYER
10
4.483210180032627
20
33.22763749465392
30
9.741096818061121e-13
 70
     32
  0
VERTEX
  8
MY3DLAYER
10
4.462336425708314
20
33.21162049962043
30
9.741096818061121e-13
 70
     32
  0
VERTEX
  8
MY3DLAYER
10
4.446319430674825
20
33.19074674529612
30
9.741096818061121e-13
 70
     32
  0
VERTEX
  8
MY3DLAYER
10
4.436250726674357
20
33.16643874354267
30
9.741096818061121e-13
 70
     32
  0
VERTEX
  8
MY3DLAYER
10
4.432816479245224
20
33.140353044508714
30
9.741096818061121e-13
 70
     32
  0
VERTEX
  8
MY3DLAYER
10
4.436250726674357
20
33.11426734547476
30
9.741096818061121e-13
 70
     32
  0
VERTEX
  8
MY3DLAYER
10
4.446319430674825
20
33.08995934372131
30
9.741096818061121e-13
 70
     32
  0
VERTEX
  8
MY3DLAYER
10
4.462336425708314
20
33.069085589397
30
9.741096818061121e-13
 70
     32
  0
VERTEX
  8
MY3DLAYER
10
4.483210180032627
20
33.05306859436351
30
9.741096818061121e-13
 70
     32
  0
VERTEX
  8
MY3DLAYER
10
4.507518181786073
20
33.04299989036304
30
9.741096818061121e-13
 70
     32
  0
VERTEX
  8
MY3DLAYER
10
4.53360388082003
20
33.03956564293391
30
9.741096818061121e-13
 70
     32
  0
VERTEX
  8
MY3DLAYER
10
4.559689579853979
20
33.04299989036304
30
9.741096818061121e-13
 70
     32
  0
VERTEX
  8
MY3DLAYER
10
4.583997581607425
20
33.05306859436351
30
9.741096818061121e-13
 70
     32
  0
VERTEX
  8
MY3DLAYER
10
4.604871335931739
20
33.069085589397
30
9.741096818061121e-13
 70
     32
  0
VERTEX
  8
MY3DLAYER
10
4.6208883309652276
20
33.08995934372131
30
9.741096818061121e-13
 70
     32
  0
VERTEX
  8
MY3DLAYER
10
4.630957034965695
20
33.11426734547476
30
9.741096818061121e-13
 70
     32
  0
VERTEX
  8
MY3DLAYER
10
4.634391282394828
20
33.140353044508714
30
9.741096818061121e-13
 70
     32
  0
VERTEX
  8
MY3DLAYER
10
4.630957034965695
20
33.16643874354267
30
9.741096818061121e-13
 70
     32
  0
VERTEX
  8
MY3DLAYER
10
4.6208883309652276
20
33.19074674529612
30
9.741096818061121e-13
 70
     32
  0
SEQEND
  0
POLYLINE
 8
Component#47
 66
     1
70
    8
 10
0.0
 20
 0.0
 30
0.0
  0
VERTEX
  8
MY3DLAYER
10
4.634391282394828
20
31.36882076104413
30
9.741096818061121e-13
 70
     32
  0
VERTEX
  8
MY3DLAYER
10
4.630957034965695
20
31.39490646007809
30
9.741096818061121e-13
 70
     32
  0
VERTEX
  8
MY3DLAYER
10
4.620888330965231
20
31.419214461831533
30
9.741096818061121e-13
 70
     32
  0
VERTEX
  8
MY3DLAYER
10
4.604871335931739
20
31.440088216155846
30
9.741096818061121e-13
 70
     32
  0
VERTEX
  8
MY3DLAYER
10
4.583997581607425
20
31.45610521118934
30
9.741096818061121e-13
 70
     32
  0
VERTEX
  8
MY3DLAYER
10
4.559689579853982
20
31.466173915189803
30
9.741096818061121e-13
 70
     32
  0
VERTEX
  8
MY3DLAYER
10
4.53360388082003
20
31.469608162618936
30
9.741096818061121e-13
 70
     32
  0
VERTEX
  8
MY3DLAYER
10
4.507518181786073
20
31.466173915189803
30
9.741096818061121e-13
 70
     32
  0
VERTEX
  8
MY3DLAYER
10
4.483210180032627
20
31.456105211189335
30
9.741096818061121e-13
 70
     32
  0
VERTEX
  8
MY3DLAYER
10
4.462336425708314
20
31.440088216155846
30
9.741096818061121e-13
 70
     32
  0
VERTEX
  8
MY3DLAYER
10
4.446319430674825
20
31.419214461831533
30
9.741096818061121e-13
 70
     32
  0
VERTEX
  8
MY3DLAYER
10
4.436250726674357
20
31.394906460078086
30
9.741096818061121e-13
 70
     32
  0
VERTEX
  8
MY3DLAYER
10
4.432816479245224
20
31.36882076104413
30
9.741096818061121e-13
 70
     32
  0
VERTEX
  8
MY3DLAYER
10
4.436250726674357
20
31.342735062010178
30
9.741096818061121e-13
 70
     32
  0
VERTEX
  8
MY3DLAYER
10
4.446319430674825
20
31.31842706025673
30
9.741096818061121e-13
 70
     32
  0
VERTEX
  8
MY3DLAYER
10
4.462336425708314
20
31.297553305932418
30
9.741096818061121e-13
 70
     32
  0
VERTEX
  8
MY3DLAYER
10
4.483210180032627
20
31.28153631089893
30
9.741096818061121e-13
 70
     32
  0
VERTEX
  8
MY3DLAYER
10
4.507518181786073
20
31.27146760689846
30
9.741096818061121e-13
 70
     32
  0
VERTEX
  8
MY3DLAYER
10
4.53360388082003
20
31.268033359469328
30
9.741096818061121e-13
 70
     32
  0
VERTEX
  8
MY3DLAYER
10
4.559689579853982
20
31.271467606898465
30
9.741096818061121e-13
 70
     32
  0
VERTEX
  8
MY3DLAYER
10
4.583997581607429
20
31.28153631089893
30
9.741096818061121e-13
 70
     32
  0
VERTEX
  8
MY3DLAYER
10
4.604871335931742
20
31.297553305932418
30
9.741096818061121e-13
 70
     32
  0
VERTEX
  8
MY3DLAYER
10
4.620888330965231
20
31.31842706025673
30
9.741096818061121e-13
 70
     32
  0
VERTEX
  8
MY3DLAYER
10
4.630957034965695
20
31.34273506201018
30
9.741096818061121e-13
 70
     32
  0
VERTEX
  8
MY3DLAYER
10
4.634391282394828
20
31.36882076104413
30
9.741096818061121e-13
 70
     32
  0
SEQEND
  0
POLYLINE
 8
Component#47
 66
     1
70
    8
 10
0.0
 20
 0.0
 30
0.0
  0
VERTEX
  8
MY3DLAYER
10
2.552887606810673
20
31.17932180986943
30
9.741096818061121e-13
 70
     32
  0
VERTEX
  8
MY3DLAYER
10
2.5737613611349826
20
31.16330481483594
30
9.741096818061121e-13
 70
     32
  0
VERTEX
  8
MY3DLAYER
10
2.598069362888433
20
31.153236110835476
30
9.741096818061121e-13
 70
     32
  0
VERTEX
  8
MY3DLAYER
10
2.6241550619223855
20
31.149801863406342
30
9.741096818061121e-13
 70
     32
  0
VERTEX
  8
MY3DLAYER
10
2.6502407609563416
20
31.153236110835476
30
9.741096818061121e-13
 70
     32
  0
VERTEX
  8
MY3DLAYER
10
2.6745487627097884
20
31.163304814835943
30
9.741096818061121e-13
 70
     32
  0
VERTEX
  8
MY3DLAYER
10
2.6954225170341015
20
31.17932180986943
30
9.741096818061121e-13
 70
     32
  0
VERTEX
  8
MY3DLAYER
10
2.7114395120675905
20
31.200195564193745
30
9.741096818061121e-13
 70
     32
  0
VERTEX
  8
MY3DLAYER
10
2.7215082160680577
20
31.22450356594719
30
9.741096818061121e-13
 70
     32
  0
VERTEX
  8
MY3DLAYER
10
2.7249424634971913
20
31.250589264981144
30
9.741096818061121e-13
 70
     32
  0
VERTEX
  8
MY3DLAYER
10
2.7215082160680577
20
31.2766749640151
30
9.741096818061121e-13
 70
     32
  0
VERTEX
  8
MY3DLAYER
10
2.7114395120675905
20
31.300982965768547
30
9.741096818061121e-13
 70
     32
  0
VERTEX
  8
MY3DLAYER
10
2.6954225170341015
20
31.32185672009286
30
9.741096818061121e-13
 70
     32
  0
VERTEX
  8
MY3DLAYER
10
2.6745487627097884
20
31.33787371512635
30
9.741096818061121e-13
 70
     32
  0
VERTEX
  8
MY3DLAYER
10
2.6502407609563416
20
31.347942419126813
30
9.741096818061121e-13
 70
     32
  0
VERTEX
  8
MY3DLAYER
10
2.6241550619223855
20
31.351376666555947
30
9.741096818061121e-13
 70
     32
  0
VERTEX
  8
MY3DLAYER
10
2.598069362888433
20
31.347942419126813
30
9.741096818061121e-13
 70
     32
  0
VERTEX
  8
MY3DLAYER
10
2.573761361134986
20
31.33787371512635
30
9.741096818061121e-13
 70
     32
  0
VERTEX
  8
MY3DLAYER
10
2.552887606810673
20
31.32185672009286
30
9.741096818061121e-13
 70
     32
  0
VERTEX
  8
MY3DLAYER
10
2.536870611777184
20
31.300982965768547
30
9.741096818061121e-13
 70
     32
  0
VERTEX
  8
MY3DLAYER
10
2.5268019077767203
20
31.2766749640151
30
9.741096818061121e-13
 70
     32
  0
VERTEX
  8
MY3DLAYER
10
2.5233676603475867
20
31.250589264981144
30
9.741096818061121e-13
 70
     32
  0
VERTEX
  8
MY3DLAYER
10
2.5268019077767203
20
31.224503565947188
30
9.741096818061121e-13
 70
     32
  0
VERTEX
  8
MY3DLAYER
10
2.5368706117771875
20
31.20019556419374
30
9.741096818061121e-13
 70
     32
  0
VERTEX
  8
MY3DLAYER
10
2.552887606810673
20
31.17932180986943
30
9.741096818061121e-13
 70
     32
  0
SEQEND
  0
POLYLINE
 8
Component#47
 66
     1
70
    8
 10
0.0
 20
 0.0
 30
0.0
  0
VERTEX
  8
MY3DLAYER
10
0.9642110951718958
20
31.763472331307916
30
9.741096818061121e-13
 70
     32
  0
VERTEX
  8
MY3DLAYER
10
0.990296794205852
20
31.760038083878783
30
9.741096818061121e-13
 70
     32
  0
VERTEX
  8
MY3DLAYER
10
1.0163824932398082
20
31.763472331307916
30
9.741096818061121e-13
 70
     32
  0
VERTEX
  8
MY3DLAYER
10
1.040690494993255
20
31.77354103530838
30
9.741096818061121e-13
 70
     32
  0
VERTEX
  8
MY3DLAYER
10
1.061564249317568
20
31.78955803034187
30
9.741096818061121e-13
 70
     32
  0
VERTEX
  8
MY3DLAYER
10
1.077581244351057
20
31.810431784666186
30
9.741096818061121e-13
 70
     32
  0
VERTEX
  8
MY3DLAYER
10
1.0876499483515243
20
31.834739786419632
30
9.741096818061121e-13
 70
     32
  0
VERTEX
  8
MY3DLAYER
10
1.0910841957806579
20
31.860825485453585
30
9.741096818061121e-13
 70
     32
  0
VERTEX
  8
MY3DLAYER
10
1.0876499483515207
20
31.88691118448754
30
9.741096818061121e-13
 70
     32
  0
VERTEX
  8
MY3DLAYER
10
1.0775812443510535
20
31.911219186240988
30
9.741096818061121e-13
 70
     32
  0
VERTEX
  8
MY3DLAYER
10
1.061564249317568
20
31.932092940565298
30
9.741096818061121e-13
 70
     32
  0
VERTEX
  8
MY3DLAYER
10
1.040690494993255
20
31.948109935598787
30
9.741096818061121e-13
 70
     32
  0
VERTEX
  8
MY3DLAYER
10
1.0163824932398082
20
31.95817863959925
30
9.741096818061121e-13
 70
     32
  0
VERTEX
  8
MY3DLAYER
10
0.990296794205852
20
31.961612887028387
30
9.741096818061121e-13
 70
     32
  0
VERTEX
  8
MY3DLAYER
10
0.9642110951718958
20
31.95817863959925
30
9.741096818061121e-13
 70
     32
  0
VERTEX
  8
MY3DLAYER
10
0.9399030934184491
20
31.948109935598787
30
9.741096818061121e-13
 70
     32
  0
VERTEX
  8
MY3DLAYER
10
0.919029339094136
20
31.932092940565298
30
9.741096818061121e-13
 70
     32
  0
VERTEX
  8
MY3DLAYER
10
0.903012344060647
20
31.911219186240988
30
9.741096818061121e-13
 70
     32
  0
VERTEX
  8
MY3DLAYER
10
0.8929436400601798
20
31.88691118448754
30
9.741096818061121e-13
 70
     32
  0
VERTEX
  8
MY3DLAYER
10
0.8895093926310498
20
31.860825485453585
30
9.741096818061121e-13
 70
     32
  0
VERTEX
  8
MY3DLAYER
10
0.8929436400601833
20
31.834739786419632
30
9.741096818061121e-13
 70
     32
  0
VERTEX
  8
MY3DLAYER
10
0.9030123440606506
20
31.810431784666182
30
9.741096818061121e-13
 70
     32
  0
VERTEX
  8
MY3DLAYER
10
0.919029339094136
20
31.78955803034187
30
9.741096818061121e-13
 70
     32
  0
VERTEX
  8
MY3DLAYER
10
0.9399030934184491
20
31.77354103530838
30
9.741096818061121e-13
 70
     32
  0
VERTEX
  8
MY3DLAYER
10
0.9642110951718958
20
31.763472331307916
30
9.741096818061121e-13
 70
     32
  0
SEQEND
  0
POLYLINE
 8
Component#46
 66
     1
70
    8
 10
0.0
 20
 0.0
 30
0.0
  0
VERTEX
  8
MY3DLAYER
10
3.3746687640396242
20
28.91870183460585
30
-9.956516437304991e-14
 70
     32
  0
VERTEX
  8
MY3DLAYER
10
3.4072032852013967
20
28.96110164807711
30
-9.956516437304991e-14
 70
     32
  0
VERTEX
  8
MY3DLAYER
10
3.449603098672659
20
28.993636169238886
30
-9.956516437304991e-14
 70
     32
  0
VERTEX
  8
MY3DLAYER
10
3.498978727234344
20
29.014088224239835
30
-9.956516437304991e-14
 70
     32
  0
VERTEX
  8
MY3DLAYER
10
3.551965303397065
20
29.021064039330263
30
-9.956516437304991e-14
 70
     32
  0
VERTEX
  8
MY3DLAYER
10
3.6049518795597866
20
29.014088224239842
30
-9.956516437304991e-14
 70
     32
  0
VERTEX
  8
MY3DLAYER
10
3.6543275081214777
20
28.993636169238894
30
-9.956516437304991e-14
 70
     32
  0
VERTEX
  8
MY3DLAYER
10
3.6967273215927374
20
28.96110164807712
30
-9.956516437304991e-14
 70
     32
  0
VERTEX
  8
MY3DLAYER
10
3.7292618427545126
20
28.91870183460586
30
-9.956516437304991e-14
 70
     32
  0
VERTEX
  8
MY3DLAYER
10
3.749713897755461
20
28.86932620604417
30
-9.956516437304991e-14
 70
     32
  0
VERTEX
  8
MY3DLAYER
10
3.7566897128458905
20
28.81633962988145
30
-9.956516437304991e-14
 70
     32
  0
VERTEX
  8
MY3DLAYER
10
3.7497138977554627
20
28.76335305371873
30
-9.956516437304991e-14
 70
     32
  0
VERTEX
  8
MY3DLAYER
10
3.729261842754518
20
28.71397742515704
30
-9.956516437304991e-14
 70
     32
  0
VERTEX
  8
MY3DLAYER
10
3.6967273215927445
20
28.671577611685777
30
-9.956516437304991e-14
 70
     32
  0
VERTEX
  8
MY3DLAYER
10
3.654327508121483
20
28.639043090524005
30
-9.956516437304991e-14
 70
     32
  0
VERTEX
  8
MY3DLAYER
10
3.6049518795597955
20
28.618591035523057
30
-9.956516437304991e-14
 70
     32
  0
VERTEX
  8
MY3DLAYER
10
3.5519653033970773
20
28.611615220432626
30
-9.956516437304991e-14
 70
     32
  0
VERTEX
  8
MY3DLAYER
10
3.4989787272343547
20
28.618591035523053
30
-9.956516437304991e-14
 70
     32
  0
VERTEX
  8
MY3DLAYER
10
3.449603098672669
20
28.639043090523998
30
-9.956516437304991e-14
 70
     32
  0
VERTEX
  8
MY3DLAYER
10
3.4072032852014047
20
28.67157761168577
30
-9.956516437304991e-14
 70
     32
  0
VERTEX
  8
MY3DLAYER
10
3.3746687640396296
20
28.713977425157033
30
-9.956516437304991e-14
 70
     32
  0
VERTEX
  8
MY3DLAYER
10
3.3542167090386803
20
28.76335305371872
30
-9.956516437304991e-14
 70
     32
  0
VERTEX
  8
MY3DLAYER
10
3.3472408939482525
20
28.81633962988144
30
-9.956516437304991e-14
 70
     32
  0
VERTEX
  8
MY3DLAYER
10
3.3542167090386794
20
28.86932620604416
30
-9.956516437304991e-14
 70
     32
  0
VERTEX
  8
MY3DLAYER
10
3.3746687640396242
20
28.91870183460585
30
-9.956516437304991e-14
 70
     32
  0
SEQEND
  0
POLYLINE
 8
Component#46
 66
     1
70
    8
 10
0.0
 20
 0.0
 30
0.0
  0
VERTEX
  8
MY3DLAYER
10
3.5519653033970666
20
28.91712703145625
30
-9.956516437304991e-14
 70
     32
  0
VERTEX
  8
MY3DLAYER
10
3.5258796043631175
20
28.913692784027116
30
-9.956516437304991e-14
 70
     32
  0
VERTEX
  8
MY3DLAYER
10
3.5015716026096717
20
28.90362408002665
30
-9.956516437304991e-14
 70
     32
  0
VERTEX
  8
MY3DLAYER
10
3.4806978482853568
20
28.88760708499316
30
-9.956516437304991e-14
 70
     32
  0
VERTEX
  8
MY3DLAYER
10
3.4646808532518687
20
28.866733330668847
30
-9.956516437304991e-14
 70
     32
  0
VERTEX
  8
MY3DLAYER
10
3.454612149251406
20
28.8424253289154
30
-9.956516437304991e-14
 70
     32
  0
VERTEX
  8
MY3DLAYER
10
3.4511779018222706
20
28.816339629881444
30
-9.956516437304991e-14
 70
     32
  0
VERTEX
  8
MY3DLAYER
10
3.454612149251405
20
28.79025393084749
30
-9.956516437304991e-14
 70
     32
  0
VERTEX
  8
MY3DLAYER
10
3.4646808532518696
20
28.765945929094045
30
-9.956516437304991e-14
 70
     32
  0
VERTEX
  8
MY3DLAYER
10
3.480697848285361
20
28.74507217476973
30
-9.956516437304991e-14
 70
     32
  0
VERTEX
  8
MY3DLAYER
10
3.5015716026096744
20
28.729055179736243
30
-9.956516437304991e-14
 70
     32
  0
VERTEX
  8
MY3DLAYER
10
3.525879604363123
20
28.718986475735775
30
-9.956516437304991e-14
 70
     32
  0
VERTEX
  8
MY3DLAYER
10
3.5519653033970737
20
28.715552228306642
30
-9.956516437304991e-14
 70
     32
  0
VERTEX
  8
MY3DLAYER
10
3.578051002431028
20
28.71898647573578
30
-9.956516437304991e-14
 70
     32
  0
VERTEX
  8
MY3DLAYER
10
3.602359004184475
20
28.729055179736246
30
-9.956516437304991e-14
 70
     32
  0
VERTEX
  8
MY3DLAYER
10
3.62323275850879
20
28.745072174769735
30
-9.956516437304991e-14
 70
     32
  0
VERTEX
  8
MY3DLAYER
10
3.639249753542277
20
28.76594592909405
30
-9.956516437304991e-14
 70
     32
  0
VERTEX
  8
MY3DLAYER
10
3.6493184575427406
20
28.790253930847495
30
-9.956516437304991e-14
 70
     32
  0
VERTEX
  8
MY3DLAYER
10
3.652752704971876
20
28.816339629881448
30
-9.956516437304991e-14
 70
     32
  0
VERTEX
  8
MY3DLAYER
10
3.6493184575427424
20
28.842425328915404
30
-9.956516437304991e-14
 70
     32
  0
VERTEX
  8
MY3DLAYER
10
3.639249753542275
20
28.86673333066885
30
-9.956516437304991e-14
 70
     32
  0
VERTEX
  8
MY3DLAYER
10
3.6232327585087862
20
28.887607084993164
30
-9.956516437304991e-14
 70
     32
  0
VERTEX
  8
MY3DLAYER
10
3.6023590041844713
20
28.903624080026653
30
-9.956516437304991e-14
 70
     32
  0
VERTEX
  8
MY3DLAYER
10
3.5780510024310264
20
28.91369278402712
30
-9.956516437304991e-14
 70
     32
  0
VERTEX
  8
MY3DLAYER
10
3.5519653033970666
20
28.91712703145625
30
-9.956516437304991e-14
 70
     32
  0
SEQEND
  0
POLYLINE
 8
Component#46
 66
     1
70
    8
 10
0.0
 20
 0.0
 30
0.0
  0
VERTEX
  8
MY3DLAYER
10
-1.2494022676605998
20
32.91779456146281
30
-9.956516437304991e-14
 70
     32
  0
VERTEX
  8
MY3DLAYER
10
-1.2168677464988256
20
32.87539474799156
30
-9.956516437304991e-14
 70
     32
  0
VERTEX
  8
MY3DLAYER
10
-1.1964156914978759
20
32.826019119429866
30
-9.956516437304991e-14
 70
     32
  0
VERTEX
  8
MY3DLAYER
10
-1.1894398764074503
20
32.77303254326714
30
-9.956516437304991e-14
 70
     32
  0
VERTEX
  8
MY3DLAYER
10
-1.1964156914978727
20
32.720045967104426
30
-9.956516437304991e-14
 70
     32
  0
VERTEX
  8
MY3DLAYER
10
-1.2168677464988216
20
32.670670338542735
30
-9.956516437304991e-14
 70
     32
  0
VERTEX
  8
MY3DLAYER
10
-1.2494022676605923
20
32.62827052507147
30
-9.956516437304991e-14
 70
     32
  0
VERTEX
  8
MY3DLAYER
10
-1.291802081131853
20
32.5957360039097
30
-9.956516437304991e-14
 70
     32
  0
VERTEX
  8
MY3DLAYER
10
-1.34117770969354
20
32.57528394890875
30
-9.956516437304991e-14
 70
     32
  0
VERTEX
  8
MY3DLAYER
10
-1.3941642858562613
20
32.56830813381832
30
-9.956516437304991e-14
 70
     32
  0
VERTEX
  8
MY3DLAYER
10
-1.4471508620189817
20
32.57528394890875
30
-9.956516437304991e-14
 70
     32
  0
VERTEX
  8
MY3DLAYER
10
-1.4965264905806714
20
32.59573600390969
30
-9.956516437304991e-14
 70
     32
  0
VERTEX
  8
MY3DLAYER
10
-1.5389263040519339
20
32.628270525071464
30
-9.956516437304991e-14
 70
     32
  0
VERTEX
  8
MY3DLAYER
10
-1.5714608252137099
20
32.67067033854273
30
-9.956516437304991e-14
 70
     32
  0
VERTEX
  8
MY3DLAYER
10
-1.5919128802146578
20
32.72004596710441
30
-9.956516437304991e-14
 70
     32
  0
VERTEX
  8
MY3DLAYER
10
-1.5988886953050874
20
32.773032543267135
30
-9.956516437304991e-14
 70
     32
  0
VERTEX
  8
MY3DLAYER
10
-1.5919128802146592
20
32.82601911942986
30
-9.956516437304991e-14
 70
     32
  0
VERTEX
  8
MY3DLAYER
10
-1.5714608252137139
20
32.87539474799154
30
-9.956516437304991e-14
 70
     32
  0
VERTEX
  8
MY3DLAYER
10
-1.5389263040519414
20
32.917794561462806
30
-9.956516437304991e-14
 70
     32
  0
VERTEX
  8
MY3DLAYER
10
-1.4965264905806808
20
32.950329082624584
30
-9.956516437304991e-14
 70
     32
  0
VERTEX
  8
MY3DLAYER
10
-1.4471508620189937
20
32.97078113762553
30
-9.956516437304991e-14
 70
     32
  0
VERTEX
  8
MY3DLAYER
10
-1.3941642858562724
20
32.977756952715964
30
-9.956516437304991e-14
 70
     32
  0
VERTEX
  8
MY3DLAYER
10
-1.341177709693552
20
32.970781137625536
30
-9.956516437304991e-14
 70
     32
  0
VERTEX
  8
MY3DLAYER
10
-1.2918020811318622
20
32.950329082624584
30
-9.956516437304991e-14
 70
     32
  0
VERTEX
  8
MY3DLAYER
10
-1.2494022676605998
20
32.91779456146281
30
-9.956516437304991e-14
 70
     32
  0
SEQEND
  0
POLYLINE
 8
Component#46
 66
     1
70
    8
 10
0.0
 20
 0.0
 30
0.0
  0
VERTEX
  8
MY3DLAYER
10
-1.3068798357110634
20
32.823426244054545
30
-9.956516437304991e-14
 70
     32
  0
VERTEX
  8
MY3DLAYER
10
-1.3228968307445528
20
32.84429999837886
30
-9.956516437304991e-14
 70
     32
  0
VERTEX
  8
MY3DLAYER
10
-1.3437705850688646
20
32.86031699341235
30
-9.956516437304991e-14
 70
     32
  0
VERTEX
  8
MY3DLAYER
10
-1.368078586822313
20
32.870385697412814
30
-9.956516437304991e-14
 70
     32
  0
VERTEX
  8
MY3DLAYER
10
-1.394164285856268
20
32.87381994484195
30
-9.956516437304991e-14
 70
     32
  0
VERTEX
  8
MY3DLAYER
10
-1.420249984890222
20
32.87038569741281
30
-9.956516437304991e-14
 70
     32
  0
VERTEX
  8
MY3DLAYER
10
-1.4445579866436669
20
32.86031699341234
30
-9.956516437304991e-14
 70
     32
  0
VERTEX
  8
MY3DLAYER
10
-1.4654317409679831
20
32.84429999837885
30
-9.956516437304991e-14
 70
     32
  0
VERTEX
  8
MY3DLAYER
10
-1.4814487360014716
20
32.82342624405454
30
-9.956516437304991e-14
 70
     32
  0
VERTEX
  8
MY3DLAYER
10
-1.4915174400019344
20
32.79911824230109
30
-9.956516437304991e-14
 70
     32
  0
VERTEX
  8
MY3DLAYER
10
-1.4949516874310693
20
32.773032543267135
30
-9.956516437304991e-14
 70
     32
  0
VERTEX
  8
MY3DLAYER
10
-1.4915174400019349
20
32.746946844233186
30
-9.956516437304991e-14
 70
     32
  0
VERTEX
  8
MY3DLAYER
10
-1.4814487360014685
20
32.72263884247974
30
-9.956516437304991e-14
 70
     32
  0
VERTEX
  8
MY3DLAYER
10
-1.4654317409679791
20
32.701765088155426
30
-9.956516437304991e-14
 70
     32
  0
VERTEX
  8
MY3DLAYER
10
-1.4445579866436637
20
32.68574809312194
30
-9.956516437304991e-14
 70
     32
  0
VERTEX
  8
MY3DLAYER
10
-1.4202499848902188
20
32.67567938912147
30
-9.956516437304991e-14
 70
     32
  0
VERTEX
  8
MY3DLAYER
10
-1.3941642858562622
20
32.672245141692336
30
-9.956516437304991e-14
 70
     32
  0
VERTEX
  8
MY3DLAYER
10
-1.3680785868223082
20
32.67567938912147
30
-9.956516437304991e-14
 70
     32
  0
VERTEX
  8
MY3DLAYER
10
-1.3437705850688597
20
32.68574809312194
30
-9.956516437304991e-14
 70
     32
  0
VERTEX
  8
MY3DLAYER
10
-1.3228968307445488
20
32.701765088155426
30
-9.956516437304991e-14
 70
     32
  0
VERTEX
  8
MY3DLAYER
10
-1.3068798357110585
20
32.72263884247974
30
-9.956516437304991e-14
 70
     32
  0
VERTEX
  8
MY3DLAYER
10
-1.2968111317105957
20
32.746946844233186
30
-9.956516437304991e-14
 70
     32
  0
VERTEX
  8
MY3DLAYER
10
-1.293376884281463
20
32.77303254326714
30
-9.956516437304991e-14
 70
     32
  0
VERTEX
  8
MY3DLAYER
10
-1.296811131710597
20
32.7991182423011
30
-9.956516437304991e-14
 70
     32
  0
VERTEX
  8
MY3DLAYER
10
-1.3068798357110634
20
32.823426244054545
30
-9.956516437304991e-14
 70
     32
  0
SEQEND
  0
POLYLINE
 8
Component#46
 66
     1
70
    8
 10
0.0
 20
 0.0
 30
0.0
  0
VERTEX
  8
MY3DLAYER
10
3.4496030986726787
20
28.206234594435738
30
-9.956516437304991e-14
 70
     32
  0
VERTEX
  8
MY3DLAYER
10
3.498978727234367
20
28.226686649436687
30
-9.956516437304991e-14
 70
     32
  0
VERTEX
  8
MY3DLAYER
10
3.5519653033970844
20
28.233662464527114
30
-9.956516437304991e-14
 70
     32
  0
VERTEX
  8
MY3DLAYER
10
3.604951879559808
20
28.22668664943669
30
-9.956516437304991e-14
 70
     32
  0
VERTEX
  8
MY3DLAYER
10
3.654327508121497
20
28.20623459443574
30
-9.956516437304991e-14
 70
     32
  0
VERTEX
  8
MY3DLAYER
10
3.6967273215927587
20
28.17370007327397
30
-9.956516437304991e-14
 70
     32
  0
VERTEX
  8
MY3DLAYER
10
3.729261842754532
20
28.13130025980271
30
-9.956516437304991e-14
 70
     32
  0
VERTEX
  8
MY3DLAYER
10
3.7497138977554805
20
28.081924631241023
30
-9.956516437304991e-14
 70
     32
  0
VERTEX
  8
MY3DLAYER
10
3.75668971284591
20
28.028938055078303
30
-9.956516437304991e-14
 70
     32
  0
VERTEX
  8
MY3DLAYER
10
3.749713897755484
20
27.975951478915583
30
-9.956516437304991e-14
 70
     32
  0
VERTEX
  8
MY3DLAYER
10
3.729261842754539
20
27.926575850353892
30
-9.956516437304991e-14
 70
     32
  0
VERTEX
  8
MY3DLAYER
10
3.696727321592766
20
27.88417603688263
30
-9.956516437304991e-14
 70
     32
  0
VERTEX
  8
MY3DLAYER
10
3.654327508121506
20
27.851641515720853
30
-9.956516437304991e-14
 70
     32
  0
VERTEX
  8
MY3DLAYER
10
3.6049518795598168
20
27.831189460719905
30
-9.956516437304991e-14
 70
     32
  0
VERTEX
  8
MY3DLAYER
10
3.5519653033970986
20
27.824213645629477
30
-9.956516437304991e-14
 70
     32
  0
VERTEX
  8
MY3DLAYER
10
3.498978727234376
20
27.831189460719905
30
-9.956516437304991e-14
 70
     32
  0
VERTEX
  8
MY3DLAYER
10
3.4496030986726884
20
27.85164151572085
30
-9.956516437304991e-14
 70
     32
  0
VERTEX
  8
MY3DLAYER
10
3.407203285201426
20
27.88417603688262
30
-9.956516437304991e-14
 70
     32
  0
VERTEX
  8
MY3DLAYER
10
3.374668764039649
20
27.92657585035388
30
-9.956516437304991e-14
 70
     32
  0
VERTEX
  8
MY3DLAYER
10
3.3542167090387016
20
27.97595147891557
30
-9.956516437304991e-14
 70
     32
  0
VERTEX
  8
MY3DLAYER
10
3.347240893948274
20
28.028938055078292
30
-9.956516437304991e-14
 70
     32
  0
VERTEX
  8
MY3DLAYER
10
3.354216709038699
20
28.081924631241012
30
-9.956516437304991e-14
 70
     32
  0
VERTEX
  8
MY3DLAYER
10
3.3746687640396456
20
28.1313002598027
30
-9.956516437304991e-14
 70
     32
  0
VERTEX
  8
MY3DLAYER
10
3.407203285201418
20
28.173700073273963
30
-9.956516437304991e-14
 70
     32
  0
VERTEX
  8
MY3DLAYER
10
3.4496030986726787
20
28.206234594435738
30
-9.956516437304991e-14
 70
     32
  0
SEQEND
  0
POLYLINE
 8
Component#46
 66
     1
70
    8
 10
0.0
 20
 0.0
 30
0.0
  0
VERTEX
  8
MY3DLAYER
10
3.5015716026096957
20
27.94165360493309
30
-9.956516437304991e-14
 70
     32
  0
VERTEX
  8
MY3DLAYER
10
3.5258796043631424
20
27.931584900932627
30
-9.956516437304991e-14
 70
     32
  0
VERTEX
  8
MY3DLAYER
10
3.551965303397095
20
27.928150653503494
30
-9.956516437304991e-14
 70
     32
  0
VERTEX
  8
MY3DLAYER
10
3.5780510024310512
20
27.931584900932627
30
-9.956516437304991e-14
 70
     32
  0
VERTEX
  8
MY3DLAYER
10
3.602359004184496
20
27.941653604933094
30
-9.956516437304991e-14
 70
     32
  0
VERTEX
  8
MY3DLAYER
10
3.6232327585088093
20
27.957670599966583
30
-9.956516437304991e-14
 70
     32
  0
VERTEX
  8
MY3DLAYER
10
3.6392497535422965
20
27.978544354290896
30
-9.956516437304991e-14
 70
     32
  0
VERTEX
  8
MY3DLAYER
10
3.6493184575427655
20
28.002852356044343
30
-9.956516437304991e-14
 70
     32
  0
VERTEX
  8
MY3DLAYER
10
3.6527527049718955
20
28.0289380550783
30
-9.956516437304991e-14
 70
     32
  0
VERTEX
  8
MY3DLAYER
10
3.649318457542762
20
28.055023754112256
30
-9.956516437304991e-14
 70
     32
  0
VERTEX
  8
MY3DLAYER
10
3.6392497535422965
20
28.079331755865702
30
-9.956516437304991e-14
 70
     32
  0
VERTEX
  8
MY3DLAYER
10
3.6232327585088058
20
28.100205510190015
30
-9.956516437304991e-14
 70
     32
  0
VERTEX
  8
MY3DLAYER
10
3.6023590041844926
20
28.116222505223504
30
-9.956516437304991e-14
 70
     32
  0
VERTEX
  8
MY3DLAYER
10
3.578051002431046
20
28.126291209223968
30
-9.956516437304991e-14
 70
     32
  0
VERTEX
  8
MY3DLAYER
10
3.551965303397088
20
28.129725456653098
30
-9.956516437304991e-14
 70
     32
  0
VERTEX
  8
MY3DLAYER
10
3.525879604363139
20
28.126291209223965
30
-9.956516437304991e-14
 70
     32
  0
VERTEX
  8
MY3DLAYER
10
3.501571602609695
20
28.116222505223497
30
-9.956516437304991e-14
 70
     32
  0
VERTEX
  8
MY3DLAYER
10
3.480697848285378
20
28.100205510190012
30
-9.956516437304991e-14
 70
     32
  0
VERTEX
  8
MY3DLAYER
10
3.46468085325189
20
28.0793317558657
30
-9.956516437304991e-14
 70
     32
  0
VERTEX
  8
MY3DLAYER
10
3.4546121492514246
20
28.055023754112252
30
-9.956516437304991e-14
 70
     32
  0
VERTEX
  8
MY3DLAYER
10
3.451177901822292
20
28.028938055078296
30
-9.956516437304991e-14
 70
     32
  0
VERTEX
  8
MY3DLAYER
10
3.4546121492514263
20
28.00285235604434
30
-9.956516437304991e-14
 70
     32
  0
VERTEX
  8
MY3DLAYER
10
3.4646808532518927
20
27.978544354290893
30
-9.956516437304991e-14
 70
     32
  0
VERTEX
  8
MY3DLAYER
10
3.4806978482853816
20
27.95767059996658
30
-9.956516437304991e-14
 70
     32
  0
VERTEX
  8
MY3DLAYER
10
3.5015716026096957
20
27.94165360493309
30
-9.956516437304991e-14
 70
     32
  0
SEQEND
  0
POLYLINE
 8
Component#46
 66
     1
70
    8
 10
0.0
 20
 0.0
 30
0.0
  0
VERTEX
  8
MY3DLAYER
10
-1.0347378493830885
20
31.128033528845425
30
-9.956516437304991e-14
 70
     32
  0
VERTEX
  8
MY3DLAYER
10
-1.010429847629644
20
31.138102232845892
30
-9.956516437304991e-14
 70
     32
  0
VERTEX
  8
MY3DLAYER
10
-0.9843441485956896
20
31.141536480275025
30
-9.956516437304991e-14
 70
     32
  0
VERTEX
  8
MY3DLAYER
10
-0.9582584495617352
20
31.138102232845892
30
-9.956516437304991e-14
 70
     32
  0
VERTEX
  8
MY3DLAYER
10
-0.9339504478082863
20
31.128033528845428
30
-9.956516437304991e-14
 70
     32
  0
VERTEX
  8
MY3DLAYER
10
-0.9130766934839745
20
31.112016533811943
30
-9.956516437304991e-14
 70
     32
  0
VERTEX
  8
MY3DLAYER
10
-0.897059698450485
20
31.091142779487626
30
-9.956516437304991e-14
 70
     32
  0
VERTEX
  8
MY3DLAYER
10
-0.8869909944500187
20
31.066834777734183
30
-9.956516437304991e-14
 70
     32
  0
VERTEX
  8
MY3DLAYER
10
-0.8835567470208847
20
31.040749078700227
30
-9.956516437304991e-14
 70
     32
  0
VERTEX
  8
MY3DLAYER
10
-0.8869909944500174
20
31.01466337966627
30
-9.956516437304991e-14
 70
     32
  0
VERTEX
  8
MY3DLAYER
10
-0.8970596984504806
20
30.990355377912824
30
-9.956516437304991e-14
 70
     32
  0
VERTEX
  8
MY3DLAYER
10
-0.9130766934839687
20
30.96948162358851
30
-9.956516437304991e-14
 70
     32
  0
VERTEX
  8
MY3DLAYER
10
-0.9339504478082818
20
30.95346462855502
30
-9.956516437304991e-14
 70
     32
  0
VERTEX
  8
MY3DLAYER
10
-0.9582584495617299
20
30.943395924554554
30
-9.956516437304991e-14
 70
     32
  0
VERTEX
  8
MY3DLAYER
10
-0.9843441485956843
20
30.93996167712542
30
-9.956516437304991e-14
 70
     32
  0
VERTEX
  8
MY3DLAYER
10
-1.0104298476296405
20
30.94339592455455
30
-9.956516437304991e-14
 70
     32
  0
VERTEX
  8
MY3DLAYER
10
-1.0347378493830859
20
30.953464628555018
30
-9.956516437304991e-14
 70
     32
  0
VERTEX
  8
MY3DLAYER
10
-1.0556116037074008
20
30.969481623588507
30
-9.956516437304991e-14
 70
     32
  0
VERTEX
  8
MY3DLAYER
10
-1.0716285987408907
20
30.99035537791282
30
-9.956516437304991e-14
 70
     32
  0
VERTEX
  8
MY3DLAYER
10
-1.0816973027413566
20
31.014663379666267
30
-9.956516437304991e-14
 70
     32
  0
VERTEX
  8
MY3DLAYER
10
-1.085131550170491
20
31.040749078700223
30
-9.956516437304991e-14
 70
     32
  0
VERTEX
  8
MY3DLAYER
10
-1.0816973027413561
20
31.066834777734176
30
-9.956516437304991e-14
 70
     32
  0
VERTEX
  8
MY3DLAYER
10
-1.0716285987408933
20
31.091142779487623
30
-9.956516437304991e-14
 70
     32
  0
VERTEX
  8
MY3DLAYER
10
-1.0556116037074048
20
31.11201653381194
30
-9.956516437304991e-14
 70
     32
  0
VERTEX
  8
MY3DLAYER
10
-1.0347378493830885
20
31.128033528845425
30
-9.956516437304991e-14
 70
     32
  0
SEQEND
  0
POLYLINE
 8
Component#46
 66
     1
70
    8
 10
0.0
 20
 0.0
 30
0.0
  0
VERTEX
  8
MY3DLAYER
10
-1.3228968307445528
20
32.84429999837886
30
-9.956516437304991e-14
 70
     32
  0
VERTEX
  8
MY3DLAYER
10
-1.3068798357110634
20
32.823426244054545
30
-9.956516437304991e-14
 70
     32
  0
VERTEX
  8
MY3DLAYER
10
-1.296811131710597
20
32.7991182423011
30
-9.956516437304991e-14
 70
     32
  0
VERTEX
  8
MY3DLAYER
10
-1.293376884281463
20
32.77303254326714
30
-9.956516437304991e-14
 70
     32
  0
VERTEX
  8
MY3DLAYER
10
-1.2968111317105957
20
32.746946844233186
30
-9.956516437304991e-14
 70
     32
  0
VERTEX
  8
MY3DLAYER
10
-1.3068798357110585
20
32.72263884247974
30
-9.956516437304991e-14
 70
     32
  0
VERTEX
  8
MY3DLAYER
10
-1.3228968307445488
20
32.701765088155426
30
-9.956516437304991e-14
 70
     32
  0
VERTEX
  8
MY3DLAYER
10
-1.3437705850688597
20
32.68574809312194
30
-9.956516437304991e-14
 70
     32
  0
VERTEX
  8
MY3DLAYER
10
-1.3680785868223082
20
32.67567938912147
30
-9.956516437304991e-14
 70
     32
  0
VERTEX
  8
MY3DLAYER
10
-1.3941642858562622
20
32.672245141692336
30
-9.956516437304991e-14
 70
     32
  0
VERTEX
  8
MY3DLAYER
10
-1.4202499848902188
20
32.67567938912147
30
-9.956516437304991e-14
 70
     32
  0
VERTEX
  8
MY3DLAYER
10
-1.4445579866436637
20
32.68574809312194
30
-9.956516437304991e-14
 70
     32
  0
VERTEX
  8
MY3DLAYER
10
-1.4654317409679791
20
32.701765088155426
30
-9.956516437304991e-14
 70
     32
  0
VERTEX
  8
MY3DLAYER
10
-1.4814487360014685
20
32.72263884247974
30
-9.956516437304991e-14
 70
     32
  0
VERTEX
  8
MY3DLAYER
10
-1.4915174400019349
20
32.746946844233186
30
-9.956516437304991e-14
 70
     32
  0
VERTEX
  8
MY3DLAYER
10
-1.4949516874310693
20
32.773032543267135
30
-9.956516437304991e-14
 70
     32
  0
VERTEX
  8
MY3DLAYER
10
-1.4915174400019344
20
32.79911824230109
30
-9.956516437304991e-14
 70
     32
  0
VERTEX
  8
MY3DLAYER
10
-1.4814487360014716
20
32.82342624405454
30
-9.956516437304991e-14
 70
     32
  0
VERTEX
  8
MY3DLAYER
10
-1.4654317409679831
20
32.84429999837885
30
-9.956516437304991e-14
 70
     32
  0
VERTEX
  8
MY3DLAYER
10
-1.4445579866436669
20
32.86031699341234
30
-9.956516437304991e-14
 70
     32
  0
VERTEX
  8
MY3DLAYER
10
-1.420249984890222
20
32.87038569741281
30
-9.956516437304991e-14
 70
     32
  0
VERTEX
  8
MY3DLAYER
10
-1.394164285856268
20
32.87381994484195
30
-9.956516437304991e-14
 70
     32
  0
VERTEX
  8
MY3DLAYER
10
-1.368078586822313
20
32.870385697412814
30
-9.956516437304991e-14
 70
     32
  0
VERTEX
  8
MY3DLAYER
10
-1.3437705850688646
20
32.86031699341235
30
-9.956516437304991e-14
 70
     32
  0
VERTEX
  8
MY3DLAYER
10
-1.3228968307445528
20
32.84429999837886
30
-9.956516437304991e-14
 70
     32
  0
SEQEND
  0
POLYLINE
 8
Component#46
 66
     1
70
    8
 10
0.0
 20
 0.0
 30
0.0
  0
VERTEX
  8
MY3DLAYER
10
-0.3850425706186522
20
27.82421364562937
30
-9.956516437304991e-14
 70
     32
  0
VERTEX
  8
MY3DLAYER
10
-0.43802914678137217
20
27.8311894607198
30
-9.956516437304991e-14
 70
     32
  0
VERTEX
  8
MY3DLAYER
10
-0.48740477534306015
20
27.851641515720743
30
-9.956516437304991e-14
 70
     32
  0
VERTEX
  8
MY3DLAYER
10
-0.5298045888143226
20
27.884176036882515
30
-9.956516437304991e-14
 70
     32
  0
VERTEX
  8
MY3DLAYER
10
-0.5623391099760968
20
27.926575850353778
30
-9.956516437304991e-14
 70
     32
  0
VERTEX
  8
MY3DLAYER
10
-0.5827911649770465
20
27.975951478915462
30
-9.956516437304991e-14
 70
     32
  0
VERTEX
  8
MY3DLAYER
10
-0.5897669800674743
20
28.028938055078186
30
-9.956516437304991e-14
 70
     32
  0
VERTEX
  8
MY3DLAYER
10
-0.5827911649770496
20
28.081924631240906
30
-9.956516437304991e-14
 70
     32
  0
VERTEX
  8
MY3DLAYER
10
-0.5623391099761026
20
28.131300259802593
30
-9.956516437304991e-14
 70
     32
  0
VERTEX
  8
MY3DLAYER
10
-0.5298045888143301
20
28.17370007327386
30
-9.956516437304991e-14
 70
     32
  0
VERTEX
  8
MY3DLAYER
10
-0.4874047753430695
20
28.20623459443563
30
-9.956516437304991e-14
 70
     32
  0
VERTEX
  8
MY3DLAYER
10
-0.4380291467813828
20
28.22668664943658
30
-9.956516437304991e-14
 70
     32
  0
VERTEX
  8
MY3DLAYER
10
-0.38504257061866287
20
28.23366246452701
30
-9.956516437304991e-14
 70
     32
  0
VERTEX
  8
MY3DLAYER
10
-0.3320559944559429
20
28.226686649436584
30
-9.956516437304991e-14
 70
     32
  0
VERTEX
  8
MY3DLAYER
10
-0.28268036589425094
20
28.206234594435635
30
-9.956516437304991e-14
 70
     32
  0
VERTEX
  8
MY3DLAYER
10
-0.2402805524229903
20
28.173700073273867
30
-9.956516437304991e-14
 70
     32
  0
VERTEX
  8
MY3DLAYER
10
-0.20774603126121427
20
28.131300259802604
30
-9.956516437304991e-14
 70
     32
  0
VERTEX
  8
MY3DLAYER
10
-0.1872939762602659
20
28.081924631240916
30
-9.956516437304991e-14
 70
     32
  0
VERTEX
  8
MY3DLAYER
10
-0.18031816116983723
20
28.028938055078196
30
-9.956516437304991e-14
 70
     32
  0
VERTEX
  8
MY3DLAYER
10
-0.187293976260265
20
27.975951478915473
30
-9.956516437304991e-14
 70
     32
  0
VERTEX
  8
MY3DLAYER
10
-0.20774603126121072
20
27.926575850353785
30
-9.956516437304991e-14
 70
     32
  0
VERTEX
  8
MY3DLAYER
10
-0.2402805524229823
20
27.884176036882522
30
-9.956516437304991e-14
 70
     32
  0
VERTEX
  8
MY3DLAYER
10
-0.28268036589424117
20
27.85164151572075
30
-9.956516437304991e-14
 70
     32
  0
VERTEX
  8
MY3DLAYER
10
-0.3320559944559305
20
27.8311894607198
30
-9.956516437304991e-14
 70
     32
  0
VERTEX
  8
MY3DLAYER
10
-0.3850425706186522
20
27.82421364562937
30
-9.956516437304991e-14
 70
     32
  0
SEQEND
  0
POLYLINE
 8
Component#46
 66
     1
70
    8
 10
0.0
 20
 0.0
 30
0.0
  0
VERTEX
  8
MY3DLAYER
10
-0.4723270207638559
20
27.97854435429079
30
-9.956516437304991e-14
 70
     32
  0
VERTEX
  8
MY3DLAYER
10
-0.45631002573036605
20
27.957670599966473
30
-9.956516437304991e-14
 70
     32
  0
VERTEX
  8
MY3DLAYER
10
-0.43543627140605423
20
27.941653604932988
30
-9.956516437304991e-14
 70
     32
  0
VERTEX
  8
MY3DLAYER
10
-0.41112826965260574
20
27.93158490093252
30
-9.956516437304991e-14
 70
     32
  0
VERTEX
  8
MY3DLAYER
10
-0.3850425706186531
20
27.92815065350339
30
-9.956516437304991e-14
 70
     32
  0
VERTEX
  8
MY3DLAYER
10
-0.3589568715846969
20
27.93158490093252
30
-9.956516437304991e-14
 70
     32
  0
VERTEX
  8
MY3DLAYER
10
-0.3346488698312502
20
27.941653604932988
30
-9.956516437304991e-14
 70
     32
  0
VERTEX
  8
MY3DLAYER
10
-0.31377511550693615
20
27.957670599966477
30
-9.956516437304991e-14
 70
     32
  0
VERTEX
  8
MY3DLAYER
10
-0.2977581204734472
20
27.97854435429079
30
-9.956516437304991e-14
 70
     32
  0
VERTEX
  8
MY3DLAYER
10
-0.2876894164729844
20
28.002852356044237
30
-9.956516437304991e-14
 70
     32
  0
VERTEX
  8
MY3DLAYER
10
-0.28425516904384995
20
28.028938055078193
30
-9.956516437304991e-14
 70
     32
  0
VERTEX
  8
MY3DLAYER
10
-0.2876894164729844
20
28.05502375411215
30
-9.956516437304991e-14
 70
     32
  0
VERTEX
  8
MY3DLAYER
10
-0.29775812047344985
20
28.079331755865596
30
-9.956516437304991e-14
 70
     32
  0
VERTEX
  8
MY3DLAYER
10
-0.3137751155069397
20
28.10020551018991
30
-9.956516437304991e-14
 70
     32
  0
VERTEX
  8
MY3DLAYER
10
-0.33464886983125286
20
28.116222505223398
30
-9.956516437304991e-14
 70
     32
  0
VERTEX
  8
MY3DLAYER
10
-0.35895687158470047
20
28.12629120922386
30
-9.956516437304991e-14
 70
     32
  0
VERTEX
  8
MY3DLAYER
10
-0.38504257061865843
20
28.129725456652995
30
-9.956516437304991e-14
 70
     32
  0
VERTEX
  8
MY3DLAYER
10
-0.4111282696526093
20
28.12629120922386
30
-9.956516437304991e-14
 70
     32
  0
VERTEX
  8
MY3DLAYER
10
-0.4354362714060551
20
28.116222505223394
30
-9.956516437304991e-14
 70
     32
  0
VERTEX
  8
MY3DLAYER
10
-0.45631002573037005
20
28.100205510189905
30
-9.956516437304991e-14
 70
     32
  0
VERTEX
  8
MY3DLAYER
10
-0.47232702076386035
20
28.079331755865592
30
-9.956516437304991e-14
 70
     32
  0
VERTEX
  8
MY3DLAYER
10
-0.48239572476432313
20
28.055023754112145
30
-9.956516437304991e-14
 70
     32
  0
VERTEX
  8
MY3DLAYER
10
-0.48582997219345625
20
28.02893805507819
30
-9.956516437304991e-14
 70
     32
  0
VERTEX
  8
MY3DLAYER
10
-0.4823957247643218
20
28.002852356044237
30
-9.956516437304991e-14
 70
     32
  0
VERTEX
  8
MY3DLAYER
10
-0.4723270207638559
20
27.97854435429079
30
-9.956516437304991e-14
 70
     32
  0
SEQEND
  0
POLYLINE
 8
Component#46
 66
     1
70
    8
 10
0.0
 20
 0.0
 30
0.0
  0
VERTEX
  8
MY3DLAYER
10
-1.1616406879531302
20
30.93838687397581
30
-9.956516437304991e-14
 70
     32
  0
VERTEX
  8
MY3DLAYER
10
-1.18209274295408
20
30.987762502537496
30
-9.956516437304991e-14
 70
     32
  0
VERTEX
  8
MY3DLAYER
10
-1.1890685580445073
20
31.040749078700216
30
-9.956516437304991e-14
 70
     32
  0
VERTEX
  8
MY3DLAYER
10
-1.1820927429540808
20
31.09373565486294
30
-9.956516437304991e-14
 70
     32
  0
VERTEX
  8
MY3DLAYER
10
-1.1616406879531356
20
31.143111283424627
30
-9.956516437304991e-14
 70
     32
  0
VERTEX
  8
MY3DLAYER
10
-1.1291061667913636
20
31.18551109689589
30
-9.956516437304991e-14
 70
     32
  0
VERTEX
  8
MY3DLAYER
10
-1.086706353320103
20
31.218045618057666
30
-9.956516437304991e-14
 70
     32
  0
VERTEX
  8
MY3DLAYER
10
-1.0373307247584158
20
31.238497673058614
30
-9.956516437304991e-14
 70
     32
  0
VERTEX
  8
MY3DLAYER
10
-0.9843441485956941
20
31.245473488149038
30
-9.956516437304991e-14
 70
     32
  0
VERTEX
  8
MY3DLAYER
10
-0.9313575724329741
20
31.238497673058617
30
-9.956516437304991e-14
 70
     32
  0
VERTEX
  8
MY3DLAYER
10
-0.8819819438712844
20
31.21804561805767
30
-9.956516437304991e-14
 70
     32
  0
VERTEX
  8
MY3DLAYER
10
-0.8395821304000219
20
31.185511096895894
30
-9.956516437304991e-14
 70
     32
  0
VERTEX
  8
MY3DLAYER
10
-0.8070476092382473
20
31.143111283424638
30
-9.956516437304991e-14
 70
     32
  0
VERTEX
  8
MY3DLAYER
10
-0.7865955542372975
20
31.09373565486295
30
-9.956516437304991e-14
 70
     32
  0
VERTEX
  8
MY3DLAYER
10
-0.779619739146872
20
31.040749078700227
30
-9.956516437304991e-14
 70
     32
  0
VERTEX
  8
MY3DLAYER
10
-0.7865955542372949
20
30.987762502537507
30
-9.956516437304991e-14
 70
     32
  0
VERTEX
  8
MY3DLAYER
10
-0.8070476092382437
20
30.93838687397582
30
-9.956516437304991e-14
 70
     32
  0
VERTEX
  8
MY3DLAYER
10
-0.839582130400014
20
30.895987060504556
30
-9.956516437304991e-14
 70
     32
  0
VERTEX
  8
MY3DLAYER
10
-0.8819819438712746
20
30.86345253934278
30
-9.956516437304991e-14
 70
     32
  0
VERTEX
  8
MY3DLAYER
10
-0.9313575724329617
20
30.843000484341832
30
-9.956516437304991e-14
 70
     32
  0
VERTEX
  8
MY3DLAYER
10
-0.984344148595683
20
30.836024669251405
30
-9.956516437304991e-14
 70
     32
  0
VERTEX
  8
MY3DLAYER
10
-1.0373307247584034
20
30.84300048434183
30
-9.956516437304991e-14
 70
     32
  0
VERTEX
  8
MY3DLAYER
10
-1.0867063533200931
20
30.863452539342774
30
-9.956516437304991e-14
 70
     32
  0
VERTEX
  8
MY3DLAYER
10
-1.1291061667913556
20
30.895987060504545
30
-9.956516437304991e-14
 70
     32
  0
VERTEX
  8
MY3DLAYER
10
-1.1616406879531302
20
30.93838687397581
30
-9.956516437304991e-14
 70
     32
  0
SEQEND
  0
POLYLINE
 8
Component#46
 66
     1
70
    8
 10
0.0
 20
 0.0
 30
0.0
  0
VERTEX
  8
MY3DLAYER
10
-1.010429847629644
20
31.138102232845892
30
-9.956516437304991e-14
 70
     32
  0
VERTEX
  8
MY3DLAYER
10
-1.0347378493830885
20
31.128033528845425
30
-9.956516437304991e-14
 70
     32
  0
VERTEX
  8
MY3DLAYER
10
-1.0556116037074048
20
31.11201653381194
30
-9.956516437304991e-14
 70
     32
  0
VERTEX
  8
MY3DLAYER
10
-1.0716285987408933
20
31.091142779487623
30
-9.956516437304991e-14
 70
     32
  0
VERTEX
  8
MY3DLAYER
10
-1.0816973027413561
20
31.066834777734176
30
-9.956516437304991e-14
 70
     32
  0
VERTEX
  8
MY3DLAYER
10
-1.085131550170491
20
31.040749078700223
30
-9.956516437304991e-14
 70
     32
  0
VERTEX
  8
MY3DLAYER
10
-1.0816973027413566
20
31.014663379666267
30
-9.956516437304991e-14
 70
     32
  0
VERTEX
  8
MY3DLAYER
10
-1.0716285987408907
20
30.99035537791282
30
-9.956516437304991e-14
 70
     32
  0
VERTEX
  8
MY3DLAYER
10
-1.0556116037074008
20
30.969481623588507
30
-9.956516437304991e-14
 70
     32
  0
VERTEX
  8
MY3DLAYER
10
-1.0347378493830859
20
30.953464628555018
30
-9.956516437304991e-14
 70
     32
  0
VERTEX
  8
MY3DLAYER
10
-1.0104298476296405
20
30.94339592455455
30
-9.956516437304991e-14
 70
     32
  0
VERTEX
  8
MY3DLAYER
10
-0.9843441485956843
20
30.93996167712542
30
-9.956516437304991e-14
 70
     32
  0
VERTEX
  8
MY3DLAYER
10
-0.9582584495617299
20
30.943395924554554
30
-9.956516437304991e-14
 70
     32
  0
VERTEX
  8
MY3DLAYER
10
-0.9339504478082818
20
30.95346462855502
30
-9.956516437304991e-14
 70
     32
  0
VERTEX
  8
MY3DLAYER
10
-0.9130766934839687
20
30.96948162358851
30
-9.956516437304991e-14
 70
     32
  0
VERTEX
  8
MY3DLAYER
10
-0.8970596984504806
20
30.990355377912824
30
-9.956516437304991e-14
 70
     32
  0
VERTEX
  8
MY3DLAYER
10
-0.8869909944500174
20
31.01466337966627
30
-9.956516437304991e-14
 70
     32
  0
VERTEX
  8
MY3DLAYER
10
-0.8835567470208847
20
31.040749078700227
30
-9.956516437304991e-14
 70
     32
  0
VERTEX
  8
MY3DLAYER
10
-0.8869909944500187
20
31.066834777734183
30
-9.956516437304991e-14
 70
     32
  0
VERTEX
  8
MY3DLAYER
10
-0.897059698450485
20
31.091142779487626
30
-9.956516437304991e-14
 70
     32
  0
VERTEX
  8
MY3DLAYER
10
-0.9130766934839745
20
31.112016533811943
30
-9.956516437304991e-14
 70
     32
  0
VERTEX
  8
MY3DLAYER
10
-0.9339504478082863
20
31.128033528845428
30
-9.956516437304991e-14
 70
     32
  0
VERTEX
  8
MY3DLAYER
10
-0.9582584495617352
20
31.138102232845892
30
-9.956516437304991e-14
 70
     32
  0
VERTEX
  8
MY3DLAYER
10
-0.9843441485956896
20
31.141536480275025
30
-9.956516437304991e-14
 70
     32
  0
VERTEX
  8
MY3DLAYER
10
-1.010429847629644
20
31.138102232845892
30
-9.956516437304991e-14
 70
     32
  0
SEQEND
  0
POLYLINE
 8
Component#46
 66
     1
70
    8
 10
0.0
 20
 0.0
 30
0.0
  0
VERTEX
  8
MY3DLAYER
10
-1.9433024080939862
20
33.22375953772613
30
-9.956516437304991e-14
 70
     32
  0
VERTEX
  8
MY3DLAYER
10
-1.9055310287302385
20
33.26585138056671
30
-9.956516437304991e-14
 70
     32
  0
VERTEX
  8
MY3DLAYER
10
-1.8661429548171147
20
33.30643438151747
30
-9.956516437304991e-14
 70
     32
  0
VERTEX
  8
MY3DLAYER
10
-1.8251984101162662
20
33.34544648979164
30
-9.956516437304991e-14
 70
     32
  0
VERTEX
  8
MY3DLAYER
10
-1.782759998209333
20
33.382828056473265
30
-9.956516437304991e-14
 70
     32
  0
VERTEX
  8
MY3DLAYER
10
-1.7388926067780321
20
33.41852192571952
30
-9.956516437304991e-14
 70
     32
  0
VERTEX
  8
MY3DLAYER
10
-1.693663308391888
20
33.45247352215109
30
-9.956516437304991e-14
 70
     32
  0
VERTEX
  8
MY3DLAYER
10
-1.6471412579552904
20
33.48463093429712
30
-9.956516437304991e-14
 70
     32
  0
VERTEX
  8
MY3DLAYER
10
-1.5993975869707122
20
33.51494499396705
30
-9.956516437304991e-14
 70
     32
  0
VERTEX
  8
MY3DLAYER
10
-0.8163227495916976
20
33.99092282800691
30
-9.956516437304991e-14
 70
     32
  0
VERTEX
  8
MY3DLAYER
10
-0.7807112362439379
20
34.00815837576971
30
-9.956516437304991e-14
 70
     32
  0
VERTEX
  8
MY3DLAYER
10
-0.742477302139072
20
34.01832745992051
30
-9.956516437304991e-14
 70
     32
  0
VERTEX
  8
MY3DLAYER
10
-0.7030086837741134
20
34.02106098401272
30
-9.956516437304991e-14
 70
     32
  0
VERTEX
  8
MY3DLAYER
10
-0.6637379316692833
20
34.0162597322257
30
-9.956516437304991e-14
 70
     32
  0
VERTEX
  8
MY3DLAYER
10
-0.6260904146033144
20
34.00409797049604
30
-9.956516437304991e-14
 70
     32
  0
VERTEX
  8
MY3DLAYER
10
-0.591432584516812
20
33.985017121371946
30
-9.956516437304991e-14
 70
     32
  0
VERTEX
  8
MY3DLAYER
10
-0.5610223798575085
20
33.95970974216784
30
-9.956516437304991e-14
 70
     32
  0
VERTEX
  8
MY3DLAYER
10
-0.5359635675245036
20
33.92909438794711
30
-9.956516437304991e-14
 70
     32
  0
VERTEX
  8
MY3DLAYER
10
-0.5171656806134859
20
33.8942822717046
30
-9.956516437304991e-14
 70
     32
  0
VERTEX
  8
MY3DLAYER
10
-0.5053110060599684
20
33.85653693184877
30
-9.956516437304991e-14
 70
     32
  0
VERTEX
  8
MY3DLAYER
10
-0.500829820395083
20
33.81722837089015
30
-9.956516437304991e-14
 70
     32
  0
VERTEX
  8
MY3DLAYER
10
-0.503884772455335
20
33.77778332991525
30
-9.956516437304991e-14
 70
     32
  0
VERTEX
  8
MY3DLAYER
10
-0.6504888586820252
20
32.937325956145315
30
-9.956516437304991e-14
 70
     32
  0
VERTEX
  8
MY3DLAYER
10
-0.6747333919598155
20
32.567425858768004
30
-9.956516437304991e-14
 70
     32
  0
VERTEX
  8
MY3DLAYER
10
-0.6504888586820021
20
32.1975257613907
30
-9.956516437304991e-14
 70
     32
  0
VERTEX
  8
MY3DLAYER
10
-0.5781700895348223
20
31.833954757235198
30
-9.956516437304991e-14
 70
     32
  0
VERTEX
  8
MY3DLAYER
10
-0.4590144787089332
20
31.482933646983536
30
-9.956516437304991e-14
 70
     32
  0
VERTEX
  8
MY3DLAYER
10
-0.2950608117417426
20
31.15046849915355
30
-9.956516437304991e-14
 70
     32
  0
VERTEX
  8
MY3DLAYER
10
-0.08911438133160487
20
30.84224788460137
30
-9.956516437304991e-14
 70
     32
  0
VERTEX
  8
MY3DLAYER
10
0.15530101199802626
20
30.563545543496883
30
-9.956516437304991e-14
 70
     32
  0
VERTEX
  8
MY3DLAYER
10
0.4340033531025309
20
30.31913015016727
30
-9.956516437304991e-14
 70
     32
  0
VERTEX
  8
MY3DLAYER
10
0.7422239676547218
20
30.113183719757146
30
-9.956516437304991e-14
 70
     32
  0
VERTEX
  8
MY3DLAYER
10
1.0746891154847171
20
29.949230052789975
30
-9.956516437304991e-14
 70
     32
  0
VERTEX
  8
MY3DLAYER
10
1.4257102257363892
20
29.830074441964108
30
-9.956516437304991e-14
 70
     32
  0
VERTEX
  8
MY3DLAYER
10
1.7892812298918939
20
29.757755672816945
30
-9.956516437304991e-14
 70
     32
  0
VERTEX
  8
MY3DLAYER
10
2.159181327269202
20
29.733511139539154
30
-9.956516437304991e-14
 70
     32
  0
VERTEX
  8
MY3DLAYER
10
2.5290814246465123
20
29.757755672816966
30
-9.956516437304991e-14
 70
     32
  0
VERTEX
  8
MY3DLAYER
10
2.89265242880201
20
29.830074441964147
30
-9.956516437304991e-14
 70
     32
  0
VERTEX
  8
MY3DLAYER
10
3.243673539053673
20
29.949230052790035
30
-9.956516437304991e-14
 70
     32
  0
VERTEX
  8
MY3DLAYER
10
3.576138686883656
20
30.113183719757227
30
-9.956516437304991e-14
 70
     32
  0
VERTEX
  8
MY3DLAYER
10
3.621555805416657
20
30.13682637519651
30
-9.956516437304991e-14
 70
     32
  0
VERTEX
  8
MY3DLAYER
10
3.668860691297171
20
30.15642070049473
30
-9.956516437304991e-14
 70
     32
  0
VERTEX
  8
MY3DLAYER
10
3.717693325780184
20
30.171817571004997
30
-9.956516437304991e-14
 70
     32
  0
VERTEX
  8
MY3DLAYER
10
3.7676820630313266
20
30.182899807245835
30
-9.956516437304991e-14
 70
     32
  0
VERTEX
  8
MY3DLAYER
10
3.818446458576089
20
30.18958306670782
30
-9.956516437304991e-14
 70
     32
  0
VERTEX
  8
MY3DLAYER
10
3.869600164711999
20
30.19181648575098
30
-9.956516437304991e-14
 70
     32
  0
VERTEX
  8
MY3DLAYER
10
3.9207538708479053
20
30.189583066707822
30
-9.956516437304991e-14
 70
     32
  0
VERTEX
  8
MY3DLAYER
10
3.955167057819418
20
30.184289189703573
30
-9.956516437304991e-14
 70
     32
  0
VERTEX
  8
MY3DLAYER
10
3.988596404094638
20
30.174554130439045
30
-9.956516437304991e-14
 70
     32
  0
VERTEX
  8
MY3DLAYER
10
4.020471320142281
20
30.160544051987156
30
-9.956516437304991e-14
 70
     32
  0
VERTEX
  8
MY3DLAYER
10
4.050247748257563
20
30.142498085679744
30
-9.956516437304991e-14
 70
     32
  0
VERTEX
  8
MY3DLAYER
10
4.077417448823045
20
30.120724249489164
30
-9.956516437304991e-14
 70
     32
  0
VERTEX
  8
MY3DLAYER
10
4.101516675207769
20
30.09559419061677
30
-9.956516437304991e-14
 70
     32
  0
VERTEX
  8
MY3DLAYER
10
4.122134089236772
20
30.067536842024477
30
-9.956516437304991e-14
 70
     32
  0
VERTEX
  8
MY3DLAYER
10
4.138917782125759
20
30.037031101183114
30
-9.956516437304991e-14
 70
     32
  0
VERTEX
  8
MY3DLAYER
10
4.151581281043958
20
30.004597656000385
30
-9.956516437304991e-14
 70
     32
  0
VERTEX
  8
MY3DLAYER
10
4.159908438781885
20
29.970790097447892
30
-9.956516437304991e-14
 70
     32
  0
VERTEX
  8
MY3DLAYER
10
4.1637571230647605
20
29.936185470581485
30
-9.956516437304991e-14
 70
     32
  0
VERTEX
  8
MY3DLAYER
10
4.163061642540347
20
29.901374425235034
30
-9.956516437304991e-14
 70
     32
  0
VERTEX
  8
MY3DLAYER
10
4.163061642540402
20
27.88257275228439
30
-9.956516437304991e-14
 70
     32
  0
VERTEX
  8
MY3DLAYER
10
4.160945653182399
20
27.85028899327754
30
-9.956516437304991e-14
 70
     32
  0
VERTEX
  8
MY3DLAYER
10
4.154633890272978
20
27.818557618338048
30
-9.956516437304991e-14
 70
     32
  0
VERTEX
  8
MY3DLAYER
10
4.144234349825458
20
27.787921560088726
30
-9.956516437304991e-14
 70
     32
  0
VERTEX
  8
MY3DLAYER
10
4.1299249708602
20
27.75890500998014
30
-9.956516437304991e-14
 70
     32
  0
VERTEX
  8
MY3DLAYER
10
4.11195059081861
20
27.732004449229553
30
-9.956516437304991e-14
 70
     32
  0
VERTEX
  8
MY3DLAYER
10
4.090618756326636
20
27.707680153889658
30
-9.956516437304991e-14
 70
     32
  0
VERTEX
  8
MY3DLAYER
10
4.0662944609867395
20
27.686348319397684
30
-9.956516437304991e-14
 70
     32
  0
VERTEX
  8
MY3DLAYER
10
4.039393900236156
20
27.66837393935609
30
-9.956516437304991e-14
 70
     32
  0
VERTEX
  8
MY3DLAYER
10
4.01037735012757
20
27.654064560390836
30
-9.956516437304991e-14
 70
     32
  0
VERTEX
  8
MY3DLAYER
10
3.9797412918782484
20
27.643665019943313
30
-9.956516437304991e-14
 70
     32
  0
VERTEX
  8
MY3DLAYER
10
3.9480099169387586
20
27.637353257033887
30
-9.956516437304991e-14
 70
     32
  0
VERTEX
  8
MY3DLAYER
10
3.915726157931907
20
27.635237267675887
30
-9.956516437304991e-14
 70
     32
  0
VERTEX
  8
MY3DLAYER
10
-3.9157261579285487
20
27.635237267675674
30
-9.956516437304991e-14
 70
     32
  0
VERTEX
  8
MY3DLAYER
10
-3.9887338600469042
20
27.649688472382138
30
-9.956516437304991e-14
 70
     32
  0
VERTEX
  8
MY3DLAYER
10
-4.059495817840568
20
27.67274724978421
30
-9.956516437304991e-14
 70
     32
  0
VERTEX
  8
MY3DLAYER
10
-4.127001074038934
20
27.704084165262017
30
-9.956516437304991e-14
 70
     32
  0
VERTEX
  8
MY3DLAYER
10
-4.190285199000901
20
27.74325151663875
30
-9.956516437304991e-14
 70
     32
  0
VERTEX
  8
MY3DLAYER
10
-4.248444069264671
20
27.789689730382527
30
-9.956516437304991e-14
 70
     32
  0
VERTEX
  8
MY3DLAYER
10
-4.300646784519153
20
27.842735356084653
30
-9.956516437304991e-14
 70
     32
  0
VERTEX
  8
MY3DLAYER
10
-4.34614753845574
20
27.901630544999136
30
-9.956516437304991e-14
 70
     32
  0
VERTEX
  8
MY3DLAYER
10
-4.384296273904665
20
27.96553387722617
30
-9.956516437304991e-14
 70
     32
  0
VERTEX
  8
MY3DLAYER
10
-4.414547970028895
20
28.03353238285444
30
-9.956516437304991e-14
 70
     32
  0
VERTEX
  8
MY3DLAYER
10
-4.4364704288918775
20
28.10465458531943
30
-9.956516437304991e-14
 70
     32
  0
VERTEX
  8
MY3DLAYER
10
-4.449750450154497
20
28.17788438063073
30
-9.956516437304991e-14
 70
     32
  0
VERTEX
  8
MY3DLAYER
10
-4.454198305685033
20
28.252175554179477
30
-9.956516437304991e-14
 70
     32
  0
VERTEX
  8
MY3DLAYER
10
-4.454198305685046
20
28.810058810114402
30
-9.956516437304991e-14
 70
     32
  0
VERTEX
  8
MY3DLAYER
10
-4.4526925458905335
20
28.875116428049893
30
-9.956516437304991e-14
 70
     32
  0
VERTEX
  8
MY3DLAYER
10
-4.448178491272796
20
28.940034717267245
30
-9.956516437304991e-14
 70
     32
  0
VERTEX
  8
MY3DLAYER
10
-4.440665809223045
20
29.004674647437522
30
-9.956516437304991e-14
 70
     32
  0
VERTEX
  8
MY3DLAYER
10
-4.430170589053997
20
29.068897784371206
30
-9.956516437304991e-14
 70
     32
  0
VERTEX
  8
MY3DLAYER
10
-4.41671530754269
20
29.132566586491638
30
-9.956516437304991e-14
 70
     32
  0
VERTEX
  8
MY3DLAYER
10
-4.40032878079375
20
29.195544699396883
30
-9.956516437304991e-14
 70
     32
  0
VERTEX
  8
MY3DLAYER
10
-4.3810461025262395
20
29.257697247879072
30
-9.956516437304991e-14
 70
     32
  0
VERTEX
  8
MY3DLAYER
10
-4.3589085689162355
20
29.31889112477591
30
-9.956516437304991e-14
 70
     32
  0
VERTEX
  8
MY3DLAYER
10
-4.333963590156101
20
29.378995276035663
30
-9.956516437304991e-14
 70
     32
  0
VERTEX
  8
MY3DLAYER
10
-4.306264588919837
20
29.437880981385206
30
-9.956516437304991e-14
 70
     32
  0
VERTEX
  8
MY3DLAYER
10
-4.275870885952025
20
29.495422129999945
30
-9.956516437304991e-14
 70
     32
  0
VERTEX
  8
MY3DLAYER
10
-4.242847573025284
20
29.55149549058536
30
-9.956516437304991e-14
 70
     32
  0
VERTEX
  8
MY3DLAYER
10
-2.0771048481695105
20
33.041623418140226
30
-9.956516437304991e-14
 70
     32
  0
VERTEX
  8
MY3DLAYER
10
-2.046351745686211
20
33.08908547688621
30
-9.956516437304991e-14
 70
     32
  0
VERTEX
  8
MY3DLAYER
10
-2.0137666359344566
20
33.13530896610134
30
-9.956516437304991e-14
 70
     32
  0
VERTEX
  8
MY3DLAYER
10
-1.979399341047904
20
33.180223210778685
30
-9.956516437304991e-14
 70
     32
  0
VERTEX
  8
MY3DLAYER
10
-1.9433024080939862
20
33.22375953772613
30
-9.956516437304991e-14
 70
     32
  0
SEQEND
  0
POLYLINE
 8
Component#46
 66
     1
70
    8
 10
0.0
 20
 0.0
 30
0.0
  0
VERTEX
  8
MY3DLAYER
10
3.4072032852013967
20
28.96110164807711
30
-9.956516437304991e-14
 70
     32
  0
VERTEX
  8
MY3DLAYER
10
3.3746687640396242
20
28.91870183460585
30
-9.956516437304991e-14
 70
     32
  0
VERTEX
  8
MY3DLAYER
10
3.3542167090386794
20
28.86932620604416
30
-9.956516437304991e-14
 70
     32
  0
VERTEX
  8
MY3DLAYER
10
3.3472408939482525
20
28.81633962988144
30
-9.956516437304991e-14
 70
     32
  0
VERTEX
  8
MY3DLAYER
10
3.3542167090386803
20
28.76335305371872
30
-9.956516437304991e-14
 70
     32
  0
VERTEX
  8
MY3DLAYER
10
3.3746687640396296
20
28.713977425157033
30
-9.956516437304991e-14
 70
     32
  0
VERTEX
  8
MY3DLAYER
10
3.4072032852014047
20
28.67157761168577
30
-9.956516437304991e-14
 70
     32
  0
VERTEX
  8
MY3DLAYER
10
3.449603098672669
20
28.639043090523998
30
-9.956516437304991e-14
 70
     32
  0
VERTEX
  8
MY3DLAYER
10
3.4989787272343547
20
28.618591035523053
30
-9.956516437304991e-14
 70
     32
  0
VERTEX
  8
MY3DLAYER
10
3.5519653033970773
20
28.611615220432626
30
-9.956516437304991e-14
 70
     32
  0
VERTEX
  8
MY3DLAYER
10
3.6049518795597955
20
28.618591035523057
30
-9.956516437304991e-14
 70
     32
  0
VERTEX
  8
MY3DLAYER
10
3.654327508121483
20
28.639043090524005
30
-9.956516437304991e-14
 70
     32
  0
VERTEX
  8
MY3DLAYER
10
3.6967273215927445
20
28.671577611685777
30
-9.956516437304991e-14
 70
     32
  0
VERTEX
  8
MY3DLAYER
10
3.729261842754518
20
28.71397742515704
30
-9.956516437304991e-14
 70
     32
  0
VERTEX
  8
MY3DLAYER
10
3.7497138977554627
20
28.76335305371873
30
-9.956516437304991e-14
 70
     32
  0
VERTEX
  8
MY3DLAYER
10
3.7566897128458905
20
28.81633962988145
30
-9.956516437304991e-14
 70
     32
  0
VERTEX
  8
MY3DLAYER
10
3.749713897755461
20
28.86932620604417
30
-9.956516437304991e-14
 70
     32
  0
VERTEX
  8
MY3DLAYER
10
3.7292618427545126
20
28.91870183460586
30
-9.956516437304991e-14
 70
     32
  0
VERTEX
  8
MY3DLAYER
10
3.6967273215927374
20
28.96110164807712
30
-9.956516437304991e-14
 70
     32
  0
VERTEX
  8
MY3DLAYER
10
3.6543275081214777
20
28.993636169238894
30
-9.956516437304991e-14
 70
     32
  0
VERTEX
  8
MY3DLAYER
10
3.6049518795597866
20
29.014088224239842
30
-9.956516437304991e-14
 70
     32
  0
VERTEX
  8
MY3DLAYER
10
3.551965303397065
20
29.021064039330263
30
-9.956516437304991e-14
 70
     32
  0
VERTEX
  8
MY3DLAYER
10
3.498978727234344
20
29.014088224239835
30
-9.956516437304991e-14
 70
     32
  0
VERTEX
  8
MY3DLAYER
10
3.449603098672659
20
28.993636169238886
30
-9.956516437304991e-14
 70
     32
  0
VERTEX
  8
MY3DLAYER
10
3.4072032852013967
20
28.96110164807711
30
-9.956516437304991e-14
 70
     32
  0
SEQEND
  0
POLYLINE
 8
Component#46
 66
     1
70
    8
 10
0.0
 20
 0.0
 30
0.0
  0
VERTEX
  8
MY3DLAYER
10
-1.2168677464988256
20
32.87539474799156
30
-9.956516437304991e-14
 70
     32
  0
VERTEX
  8
MY3DLAYER
10
-1.2494022676605998
20
32.91779456146281
30
-9.956516437304991e-14
 70
     32
  0
VERTEX
  8
MY3DLAYER
10
-1.2918020811318622
20
32.950329082624584
30
-9.956516437304991e-14
 70
     32
  0
VERTEX
  8
MY3DLAYER
10
-1.341177709693552
20
32.970781137625536
30
-9.956516437304991e-14
 70
     32
  0
VERTEX
  8
MY3DLAYER
10
-1.3941642858562724
20
32.977756952715964
30
-9.956516437304991e-14
 70
     32
  0
VERTEX
  8
MY3DLAYER
10
-1.4471508620189937
20
32.97078113762553
30
-9.956516437304991e-14
 70
     32
  0
VERTEX
  8
MY3DLAYER
10
-1.4965264905806808
20
32.950329082624584
30
-9.956516437304991e-14
 70
     32
  0
VERTEX
  8
MY3DLAYER
10
-1.5389263040519414
20
32.917794561462806
30
-9.956516437304991e-14
 70
     32
  0
VERTEX
  8
MY3DLAYER
10
-1.5714608252137139
20
32.87539474799154
30
-9.956516437304991e-14
 70
     32
  0
VERTEX
  8
MY3DLAYER
10
-1.5919128802146592
20
32.82601911942986
30
-9.956516437304991e-14
 70
     32
  0
VERTEX
  8
MY3DLAYER
10
-1.5988886953050874
20
32.773032543267135
30
-9.956516437304991e-14
 70
     32
  0
VERTEX
  8
MY3DLAYER
10
-1.5919128802146578
20
32.72004596710441
30
-9.956516437304991e-14
 70
     32
  0
VERTEX
  8
MY3DLAYER
10
-1.5714608252137099
20
32.67067033854273
30
-9.956516437304991e-14
 70
     32
  0
VERTEX
  8
MY3DLAYER
10
-1.5389263040519339
20
32.628270525071464
30
-9.956516437304991e-14
 70
     32
  0
VERTEX
  8
MY3DLAYER
10
-1.4965264905806714
20
32.59573600390969
30
-9.956516437304991e-14
 70
     32
  0
VERTEX
  8
MY3DLAYER
10
-1.4471508620189817
20
32.57528394890875
30
-9.956516437304991e-14
 70
     32
  0
VERTEX
  8
MY3DLAYER
10
-1.3941642858562613
20
32.56830813381832
30
-9.956516437304991e-14
 70
     32
  0
VERTEX
  8
MY3DLAYER
10
-1.34117770969354
20
32.57528394890875
30
-9.956516437304991e-14
 70
     32
  0
VERTEX
  8
MY3DLAYER
10
-1.291802081131853
20
32.5957360039097
30
-9.956516437304991e-14
 70
     32
  0
VERTEX
  8
MY3DLAYER
10
-1.2494022676605923
20
32.62827052507147
30
-9.956516437304991e-14
 70
     32
  0
VERTEX
  8
MY3DLAYER
10
-1.2168677464988216
20
32.670670338542735
30
-9.956516437304991e-14
 70
     32
  0
VERTEX
  8
MY3DLAYER
10
-1.1964156914978727
20
32.720045967104426
30
-9.956516437304991e-14
 70
     32
  0
VERTEX
  8
MY3DLAYER
10
-1.1894398764074503
20
32.77303254326714
30
-9.956516437304991e-14
 70
     32
  0
VERTEX
  8
MY3DLAYER
10
-1.1964156914978759
20
32.826019119429866
30
-9.956516437304991e-14
 70
     32
  0
VERTEX
  8
MY3DLAYER
10
-1.2168677464988256
20
32.87539474799156
30
-9.956516437304991e-14
 70
     32
  0
SEQEND
  0
POLYLINE
 8
Component#46
 66
     1
70
    8
 10
0.0
 20
 0.0
 30
0.0
  0
VERTEX
  8
MY3DLAYER
10
3.498978727234367
20
28.226686649436687
30
-9.956516437304991e-14
 70
     32
  0
VERTEX
  8
MY3DLAYER
10
3.4496030986726787
20
28.206234594435738
30
-9.956516437304991e-14
 70
     32
  0
VERTEX
  8
MY3DLAYER
10
3.407203285201418
20
28.173700073273963
30
-9.956516437304991e-14
 70
     32
  0
VERTEX
  8
MY3DLAYER
10
3.3746687640396456
20
28.1313002598027
30
-9.956516437304991e-14
 70
     32
  0
VERTEX
  8
MY3DLAYER
10
3.354216709038699
20
28.081924631241012
30
-9.956516437304991e-14
 70
     32
  0
VERTEX
  8
MY3DLAYER
10
3.347240893948274
20
28.028938055078292
30
-9.956516437304991e-14
 70
     32
  0
VERTEX
  8
MY3DLAYER
10
3.3542167090387016
20
27.97595147891557
30
-9.956516437304991e-14
 70
     32
  0
VERTEX
  8
MY3DLAYER
10
3.374668764039649
20
27.92657585035388
30
-9.956516437304991e-14
 70
     32
  0
VERTEX
  8
MY3DLAYER
10
3.407203285201426
20
27.88417603688262
30
-9.956516437304991e-14
 70
     32
  0
VERTEX
  8
MY3DLAYER
10
3.4496030986726884
20
27.85164151572085
30
-9.956516437304991e-14
 70
     32
  0
VERTEX
  8
MY3DLAYER
10
3.498978727234376
20
27.831189460719905
30
-9.956516437304991e-14
 70
     32
  0
VERTEX
  8
MY3DLAYER
10
3.5519653033970986
20
27.824213645629477
30
-9.956516437304991e-14
 70
     32
  0
VERTEX
  8
MY3DLAYER
10
3.6049518795598168
20
27.831189460719905
30
-9.956516437304991e-14
 70
     32
  0
VERTEX
  8
MY3DLAYER
10
3.654327508121506
20
27.851641515720853
30
-9.956516437304991e-14
 70
     32
  0
VERTEX
  8
MY3DLAYER
10
3.696727321592766
20
27.88417603688263
30
-9.956516437304991e-14
 70
     32
  0
VERTEX
  8
MY3DLAYER
10
3.729261842754539
20
27.926575850353892
30
-9.956516437304991e-14
 70
     32
  0
VERTEX
  8
MY3DLAYER
10
3.749713897755484
20
27.975951478915583
30
-9.956516437304991e-14
 70
     32
  0
VERTEX
  8
MY3DLAYER
10
3.75668971284591
20
28.028938055078303
30
-9.956516437304991e-14
 70
     32
  0
VERTEX
  8
MY3DLAYER
10
3.7497138977554805
20
28.081924631241023
30
-9.956516437304991e-14
 70
     32
  0
VERTEX
  8
MY3DLAYER
10
3.729261842754532
20
28.13130025980271
30
-9.956516437304991e-14
 70
     32
  0
VERTEX
  8
MY3DLAYER
10
3.6967273215927587
20
28.17370007327397
30
-9.956516437304991e-14
 70
     32
  0
VERTEX
  8
MY3DLAYER
10
3.654327508121497
20
28.20623459443574
30
-9.956516437304991e-14
 70
     32
  0
VERTEX
  8
MY3DLAYER
10
3.604951879559808
20
28.22668664943669
30
-9.956516437304991e-14
 70
     32
  0
VERTEX
  8
MY3DLAYER
10
3.5519653033970844
20
28.233662464527114
30
-9.956516437304991e-14
 70
     32
  0
VERTEX
  8
MY3DLAYER
10
3.498978727234367
20
28.226686649436687
30
-9.956516437304991e-14
 70
     32
  0
SEQEND
  0
POLYLINE
 8
Component#46
 66
     1
70
    8
 10
0.0
 20
 0.0
 30
0.0
  0
VERTEX
  8
MY3DLAYER
10
-1.18209274295408
20
30.987762502537496
30
-9.956516437304991e-14
 70
     32
  0
VERTEX
  8
MY3DLAYER
10
-1.1616406879531302
20
30.93838687397581
30
-9.956516437304991e-14
 70
     32
  0
VERTEX
  8
MY3DLAYER
10
-1.1291061667913556
20
30.895987060504545
30
-9.956516437304991e-14
 70
     32
  0
VERTEX
  8
MY3DLAYER
10
-1.0867063533200931
20
30.863452539342774
30
-9.956516437304991e-14
 70
     32
  0
VERTEX
  8
MY3DLAYER
10
-1.0373307247584034
20
30.84300048434183
30
-9.956516437304991e-14
 70
     32
  0
VERTEX
  8
MY3DLAYER
10
-0.984344148595683
20
30.836024669251405
30
-9.956516437304991e-14
 70
     32
  0
VERTEX
  8
MY3DLAYER
10
-0.9313575724329617
20
30.843000484341832
30
-9.956516437304991e-14
 70
     32
  0
VERTEX
  8
MY3DLAYER
10
-0.8819819438712746
20
30.86345253934278
30
-9.956516437304991e-14
 70
     32
  0
VERTEX
  8
MY3DLAYER
10
-0.839582130400014
20
30.895987060504556
30
-9.956516437304991e-14
 70
     32
  0
VERTEX
  8
MY3DLAYER
10
-0.8070476092382437
20
30.93838687397582
30
-9.956516437304991e-14
 70
     32
  0
VERTEX
  8
MY3DLAYER
10
-0.7865955542372949
20
30.987762502537507
30
-9.956516437304991e-14
 70
     32
  0
VERTEX
  8
MY3DLAYER
10
-0.779619739146872
20
31.040749078700227
30
-9.956516437304991e-14
 70
     32
  0
VERTEX
  8
MY3DLAYER
10
-0.7865955542372975
20
31.09373565486295
30
-9.956516437304991e-14
 70
     32
  0
VERTEX
  8
MY3DLAYER
10
-0.8070476092382473
20
31.143111283424638
30
-9.956516437304991e-14
 70
     32
  0
VERTEX
  8
MY3DLAYER
10
-0.8395821304000219
20
31.185511096895894
30
-9.956516437304991e-14
 70
     32
  0
VERTEX
  8
MY3DLAYER
10
-0.8819819438712844
20
31.21804561805767
30
-9.956516437304991e-14
 70
     32
  0
VERTEX
  8
MY3DLAYER
10
-0.9313575724329741
20
31.238497673058617
30
-9.956516437304991e-14
 70
     32
  0
VERTEX
  8
MY3DLAYER
10
-0.9843441485956941
20
31.245473488149038
30
-9.956516437304991e-14
 70
     32
  0
VERTEX
  8
MY3DLAYER
10
-1.0373307247584158
20
31.238497673058614
30
-9.956516437304991e-14
 70
     32
  0
VERTEX
  8
MY3DLAYER
10
-1.086706353320103
20
31.218045618057666
30
-9.956516437304991e-14
 70
     32
  0
VERTEX
  8
MY3DLAYER
10
-1.1291061667913636
20
31.18551109689589
30
-9.956516437304991e-14
 70
     32
  0
VERTEX
  8
MY3DLAYER
10
-1.1616406879531356
20
31.143111283424627
30
-9.956516437304991e-14
 70
     32
  0
VERTEX
  8
MY3DLAYER
10
-1.1820927429540808
20
31.09373565486294
30
-9.956516437304991e-14
 70
     32
  0
VERTEX
  8
MY3DLAYER
10
-1.1890685580445073
20
31.040749078700216
30
-9.956516437304991e-14
 70
     32
  0
VERTEX
  8
MY3DLAYER
10
-1.18209274295408
20
30.987762502537496
30
-9.956516437304991e-14
 70
     32
  0
SEQEND
  0
POLYLINE
 8
Component#46
 66
     1
70
    8
 10
0.0
 20
 0.0
 30
0.0
  0
VERTEX
  8
MY3DLAYER
10
-2.413478006863412
20
31.09980419681042
30
-9.956516437304991e-14
 70
     32
  0
VERTEX
  8
MY3DLAYER
10
-2.42045382195384
20
31.15279077297314
30
-9.956516437304991e-14
 70
     32
  0
VERTEX
  8
MY3DLAYER
10
-2.4409058769547896
20
31.202166401534832
30
-9.956516437304991e-14
 70
     32
  0
VERTEX
  8
MY3DLAYER
10
-2.473440398116562
20
31.244566215006092
30
-9.956516437304991e-14
 70
     32
  0
VERTEX
  8
MY3DLAYER
10
-2.5158402115878244
20
31.277100736167863
30
-9.956516437304991e-14
 70
     32
  0
VERTEX
  8
MY3DLAYER
10
-2.5652158401495138
20
31.297552791168812
30
-9.956516437304991e-14
 70
     32
  0
VERTEX
  8
MY3DLAYER
10
-2.6182024163122346
20
31.304528606259236
30
-9.956516437304991e-14
 70
     32
  0
VERTEX
  8
MY3DLAYER
10
-2.6711889924749554
20
31.297552791168805
30
-9.956516437304991e-14
 70
     32
  0
VERTEX
  8
MY3DLAYER
10
-2.720564621036642
20
31.277100736167856
30
-9.956516437304991e-14
 70
     32
  0
VERTEX
  8
MY3DLAYER
10
-2.7629644345079036
20
31.244566215006085
30
-9.956516437304991e-14
 70
     32
  0
VERTEX
  8
MY3DLAYER
10
-2.795498955669675
20
31.202166401534825
30
-9.956516437304991e-14
 70
     32
  0
VERTEX
  8
MY3DLAYER
10
-2.815951010670622
20
31.15279077297313
30
-9.956516437304991e-14
 70
     32
  0
VERTEX
  8
MY3DLAYER
10
-2.822926825761047
20
31.09980419681041
30
-9.956516437304991e-14
 70
     32
  0
VERTEX
  8
MY3DLAYER
10
-2.815951010670619
20
31.04681762064769
30
-9.956516437304991e-14
 70
     32
  0
VERTEX
  8
MY3DLAYER
10
-2.7954989556696694
20
30.997441992086003
30
-9.956516437304991e-14
 70
     32
  0
VERTEX
  8
MY3DLAYER
10
-2.7629644345078956
20
30.955042178614743
30
-9.956516437304991e-14
 70
     32
  0
VERTEX
  8
MY3DLAYER
10
-2.720564621036633
20
30.92250765745297
30
-9.956516437304991e-14
 70
     32
  0
VERTEX
  8
MY3DLAYER
10
-2.671188992474945
20
30.902055602452023
30
-9.956516437304991e-14
 70
     32
  0
VERTEX
  8
MY3DLAYER
10
-2.6182024163122235
20
30.8950797873616
30
-9.956516437304991e-14
 70
     32
  0
VERTEX
  8
MY3DLAYER
10
-2.565215840149503
20
30.902055602452027
30
-9.956516437304991e-14
 70
     32
  0
VERTEX
  8
MY3DLAYER
10
-2.515840211587813
20
30.922507657452975
30
-9.956516437304991e-14
 70
     32
  0
VERTEX
  8
MY3DLAYER
10
-2.473440398116554
20
30.95504217861475
30
-9.956516437304991e-14
 70
     32
  0
VERTEX
  8
MY3DLAYER
10
-2.440905876954782
20
30.997441992086014
30
-9.956516437304991e-14
 70
     32
  0
VERTEX
  8
MY3DLAYER
10
-2.420453821953835
20
31.0468176206477
30
-9.956516437304991e-14
 70
     32
  0
VERTEX
  8
MY3DLAYER
10
-2.413478006863412
20
31.09980419681042
30
-9.956516437304991e-14
 70
     32
  0
SEQEND
  0
POLYLINE
 8
Component#46
 66
     1
70
    8
 10
0.0
 20
 0.0
 30
0.0
  0
VERTEX
  8
MY3DLAYER
10
-0.43802914678137217
20
27.8311894607198
30
-9.956516437304991e-14
 70
     32
  0
VERTEX
  8
MY3DLAYER
10
-0.3850425706186522
20
27.82421364562937
30
-9.956516437304991e-14
 70
     32
  0
VERTEX
  8
MY3DLAYER
10
-0.3320559944559305
20
27.8311894607198
30
-9.956516437304991e-14
 70
     32
  0
VERTEX
  8
MY3DLAYER
10
-0.28268036589424117
20
27.85164151572075
30
-9.956516437304991e-14
 70
     32
  0
VERTEX
  8
MY3DLAYER
10
-0.2402805524229823
20
27.884176036882522
30
-9.956516437304991e-14
 70
     32
  0
VERTEX
  8
MY3DLAYER
10
-0.20774603126121072
20
27.926575850353785
30
-9.956516437304991e-14
 70
     32
  0
VERTEX
  8
MY3DLAYER
10
-0.187293976260265
20
27.975951478915473
30
-9.956516437304991e-14
 70
     32
  0
VERTEX
  8
MY3DLAYER
10
-0.18031816116983723
20
28.028938055078196
30
-9.956516437304991e-14
 70
     32
  0
VERTEX
  8
MY3DLAYER
10
-0.1872939762602659
20
28.081924631240916
30
-9.956516437304991e-14
 70
     32
  0
VERTEX
  8
MY3DLAYER
10
-0.20774603126121427
20
28.131300259802604
30
-9.956516437304991e-14
 70
     32
  0
VERTEX
  8
MY3DLAYER
10
-0.2402805524229903
20
28.173700073273867
30
-9.956516437304991e-14
 70
     32
  0
VERTEX
  8
MY3DLAYER
10
-0.28268036589425094
20
28.206234594435635
30
-9.956516437304991e-14
 70
     32
  0
VERTEX
  8
MY3DLAYER
10
-0.3320559944559429
20
28.226686649436584
30
-9.956516437304991e-14
 70
     32
  0
VERTEX
  8
MY3DLAYER
10
-0.38504257061866287
20
28.23366246452701
30
-9.956516437304991e-14
 70
     32
  0
VERTEX
  8
MY3DLAYER
10
-0.4380291467813828
20
28.22668664943658
30
-9.956516437304991e-14
 70
     32
  0
VERTEX
  8
MY3DLAYER
10
-0.4874047753430695
20
28.20623459443563
30
-9.956516437304991e-14
 70
     32
  0
VERTEX
  8
MY3DLAYER
10
-0.5298045888143301
20
28.17370007327386
30
-9.956516437304991e-14
 70
     32
  0
VERTEX
  8
MY3DLAYER
10
-0.5623391099761026
20
28.131300259802593
30
-9.956516437304991e-14
 70
     32
  0
VERTEX
  8
MY3DLAYER
10
-0.5827911649770496
20
28.081924631240906
30
-9.956516437304991e-14
 70
     32
  0
VERTEX
  8
MY3DLAYER
10
-0.5897669800674743
20
28.028938055078186
30
-9.956516437304991e-14
 70
     32
  0
VERTEX
  8
MY3DLAYER
10
-0.5827911649770465
20
27.975951478915462
30
-9.956516437304991e-14
 70
     32
  0
VERTEX
  8
MY3DLAYER
10
-0.5623391099760968
20
27.926575850353778
30
-9.956516437304991e-14
 70
     32
  0
VERTEX
  8
MY3DLAYER
10
-0.5298045888143226
20
27.884176036882515
30
-9.956516437304991e-14
 70
     32
  0
VERTEX
  8
MY3DLAYER
10
-0.48740477534306015
20
27.851641515720743
30
-9.956516437304991e-14
 70
     32
  0
VERTEX
  8
MY3DLAYER
10
-0.43802914678137217
20
27.8311894607198
30
-9.956516437304991e-14
 70
     32
  0
SEQEND
  0
POLYLINE
 8
Component#46
 66
     1
70
    8
 10
0.0
 20
 0.0
 30
0.0
  0
VERTEX
  8
MY3DLAYER
10
-0.18729397626028899
20
28.869326206044065
30
-9.956516437304991e-14
 70
     32
  0
VERTEX
  8
MY3DLAYER
10
-0.20774603126123736
20
28.918701834605756
30
-9.956516437304991e-14
 70
     32
  0
VERTEX
  8
MY3DLAYER
10
-0.24028055242300983
20
28.961101648077015
30
-9.956516437304991e-14
 70
     32
  0
VERTEX
  8
MY3DLAYER
10
-0.28268036589427226
20
28.993636169238787
30
-9.956516437304991e-14
 70
     32
  0
VERTEX
  8
MY3DLAYER
10
-0.33205599445596423
20
29.014088224239735
30
-9.956516437304991e-14
 70
     32
  0
VERTEX
  8
MY3DLAYER
10
-0.3850425706186824
20
29.02106403933016
30
-9.956516437304991e-14
 70
     32
  0
VERTEX
  8
MY3DLAYER
10
-0.4380291467814059
20
29.01408822423973
30
-9.956516437304991e-14
 70
     32
  0
VERTEX
  8
MY3DLAYER
10
-0.4874047753430908
20
28.993636169238783
30
-9.956516437304991e-14
 70
     32
  0
VERTEX
  8
MY3DLAYER
10
-0.5298045888143514
20
28.96110164807701
30
-9.956516437304991e-14
 70
     32
  0
VERTEX
  8
MY3DLAYER
10
-0.5623391099761235
20
28.91870183460575
30
-9.956516437304991e-14
 70
     32
  0
VERTEX
  8
MY3DLAYER
10
-0.5827911649770705
20
28.869326206044057
30
-9.956516437304991e-14
 70
     32
  0
VERTEX
  8
MY3DLAYER
10
-0.5897669800674952
20
28.816339629881334
30
-9.956516437304991e-14
 70
     32
  0
VERTEX
  8
MY3DLAYER
10
-0.5827911649770678
20
28.763353053718614
30
-9.956516437304991e-14
 70
     32
  0
VERTEX
  8
MY3DLAYER
10
-0.5623391099761199
20
28.713977425156926
30
-9.956516437304991e-14
 70
     32
  0
VERTEX
  8
MY3DLAYER
10
-0.5298045888143439
20
28.671577611685667
30
-9.956516437304991e-14
 70
     32
  0
VERTEX
  8
MY3DLAYER
10
-0.48740477534308146
20
28.63904309052389
30
-9.956516437304991e-14
 70
     32
  0
VERTEX
  8
MY3DLAYER
10
-0.4380291467813935
20
28.618591035522947
30
-9.956516437304991e-14
 70
     32
  0
VERTEX
  8
MY3DLAYER
10
-0.38504257061867087
20
28.611615220432522
30
-9.956516437304991e-14
 70
     32
  0
VERTEX
  8
MY3DLAYER
10
-0.3320559944559536
20
28.61859103552295
30
-9.956516437304991e-14
 70
     32
  0
VERTEX
  8
MY3DLAYER
10
-0.2826803658942625
20
28.6390430905239
30
-9.956516437304991e-14
 70
     32
  0
VERTEX
  8
MY3DLAYER
10
-0.24028055242300184
20
28.671577611685674
30
-9.956516437304991e-14
 70
     32
  0
VERTEX
  8
MY3DLAYER
10
-0.20774603126123203
20
28.713977425156934
30
-9.956516437304991e-14
 70
     32
  0
VERTEX
  8
MY3DLAYER
10
-0.18729397626028632
20
28.763353053718625
30
-9.956516437304991e-14
 70
     32
  0
VERTEX
  8
MY3DLAYER
10
-0.18031816116986032
20
28.816339629881345
30
-9.956516437304991e-14
 70
     32
  0
VERTEX
  8
MY3DLAYER
10
-0.18729397626028899
20
28.869326206044065
30
-9.956516437304991e-14
 70
     32
  0
SEQEND
  0
POLYLINE
 8
Component#46
 66
     1
70
    8
 10
0.0
 20
 0.0
 30
0.0
  0
VERTEX
  8
MY3DLAYER
10
-0.20774603126123736
20
28.918701834605756
30
-9.956516437304991e-14
 70
     32
  0
VERTEX
  8
MY3DLAYER
10
-0.18729397626028899
20
28.869326206044065
30
-9.956516437304991e-14
 70
     32
  0
VERTEX
  8
MY3DLAYER
10
-0.18031816116986032
20
28.816339629881345
30
-9.956516437304991e-14
 70
     32
  0
VERTEX
  8
MY3DLAYER
10
-0.18729397626028632
20
28.763353053718625
30
-9.956516437304991e-14
 70
     32
  0
VERTEX
  8
MY3DLAYER
10
-0.20774603126123203
20
28.713977425156934
30
-9.956516437304991e-14
 70
     32
  0
VERTEX
  8
MY3DLAYER
10
-0.24028055242300184
20
28.671577611685674
30
-9.956516437304991e-14
 70
     32
  0
VERTEX
  8
MY3DLAYER
10
-0.2826803658942625
20
28.6390430905239
30
-9.956516437304991e-14
 70
     32
  0
VERTEX
  8
MY3DLAYER
10
-0.3320559944559536
20
28.61859103552295
30
-9.956516437304991e-14
 70
     32
  0
VERTEX
  8
MY3DLAYER
10
-0.38504257061867087
20
28.611615220432522
30
-9.956516437304991e-14
 70
     32
  0
VERTEX
  8
MY3DLAYER
10
-0.4380291467813935
20
28.618591035522947
30
-9.956516437304991e-14
 70
     32
  0
VERTEX
  8
MY3DLAYER
10
-0.48740477534308146
20
28.63904309052389
30
-9.956516437304991e-14
 70
     32
  0
VERTEX
  8
MY3DLAYER
10
-0.5298045888143439
20
28.671577611685667
30
-9.956516437304991e-14
 70
     32
  0
VERTEX
  8
MY3DLAYER
10
-0.5623391099761199
20
28.713977425156926
30
-9.956516437304991e-14
 70
     32
  0
VERTEX
  8
MY3DLAYER
10
-0.5827911649770678
20
28.763353053718614
30
-9.956516437304991e-14
 70
     32
  0
VERTEX
  8
MY3DLAYER
10
-0.5897669800674952
20
28.816339629881334
30
-9.956516437304991e-14
 70
     32
  0
VERTEX
  8
MY3DLAYER
10
-0.5827911649770705
20
28.869326206044057
30
-9.956516437304991e-14
 70
     32
  0
VERTEX
  8
MY3DLAYER
10
-0.5623391099761235
20
28.91870183460575
30
-9.956516437304991e-14
 70
     32
  0
VERTEX
  8
MY3DLAYER
10
-0.5298045888143514
20
28.96110164807701
30
-9.956516437304991e-14
 70
     32
  0
VERTEX
  8
MY3DLAYER
10
-0.4874047753430908
20
28.993636169238783
30
-9.956516437304991e-14
 70
     32
  0
VERTEX
  8
MY3DLAYER
10
-0.4380291467814059
20
29.01408822423973
30
-9.956516437304991e-14
 70
     32
  0
VERTEX
  8
MY3DLAYER
10
-0.3850425706186824
20
29.02106403933016
30
-9.956516437304991e-14
 70
     32
  0
VERTEX
  8
MY3DLAYER
10
-0.33205599445596423
20
29.014088224239735
30
-9.956516437304991e-14
 70
     32
  0
VERTEX
  8
MY3DLAYER
10
-0.28268036589427226
20
28.993636169238787
30
-9.956516437304991e-14
 70
     32
  0
VERTEX
  8
MY3DLAYER
10
-0.24028055242300983
20
28.961101648077015
30
-9.956516437304991e-14
 70
     32
  0
VERTEX
  8
MY3DLAYER
10
-0.20774603126123736
20
28.918701834605756
30
-9.956516437304991e-14
 70
     32
  0
SEQEND
  0
POLYLINE
 8
Component#46
 66
     1
70
    8
 10
0.0
 20
 0.0
 30
0.0
  0
VERTEX
  8
MY3DLAYER
10
-0.45631002573038915
20
28.745072174769625
30
-9.956516437304991e-14
 70
     32
  0
VERTEX
  8
MY3DLAYER
10
-0.43543627140607377
20
28.729055179736136
30
-9.956516437304991e-14
 70
     32
  0
VERTEX
  8
MY3DLAYER
10
-0.41112826965262705
20
28.71898647573567
30
-9.956516437304991e-14
 70
     32
  0
VERTEX
  8
MY3DLAYER
10
-0.38504257061867264
20
28.71555222830654
30
-9.956516437304991e-14
 70
     32
  0
VERTEX
  8
MY3DLAYER
10
-0.35895687158471823
20
28.718986475735672
30
-9.956516437304991e-14
 70
     32
  0
VERTEX
  8
MY3DLAYER
10
-0.33464886983126974
20
28.72905517973614
30
-9.956516437304991e-14
 70
     32
  0
VERTEX
  8
MY3DLAYER
10
-0.3137751155069566
20
28.74507217476963
30
-9.956516437304991e-14
 70
     32
  0
VERTEX
  8
MY3DLAYER
10
-0.2977581204734685
20
28.765945929093945
30
-9.956516437304991e-14
 70
     32
  0
VERTEX
  8
MY3DLAYER
10
-0.2876894164730057
20
28.790253930847392
30
-9.956516437304991e-14
 70
     32
  0
VERTEX
  8
MY3DLAYER
10
-0.28425516904387127
20
28.81633962988134
30
-9.956516437304991e-14
 70
     32
  0
VERTEX
  8
MY3DLAYER
10
-0.2876894164730066
20
28.842425328915297
30
-9.956516437304991e-14
 70
     32
  0
VERTEX
  8
MY3DLAYER
10
-0.29775812047347294
20
28.866733330668744
30
-9.956516437304991e-14
 70
     32
  0
VERTEX
  8
MY3DLAYER
10
-0.313775115506961
20
28.887607084993057
30
-9.956516437304991e-14
 70
     32
  0
VERTEX
  8
MY3DLAYER
10
-0.3346488698312742
20
28.903624080026546
30
-9.956516437304991e-14
 70
     32
  0
VERTEX
  8
MY3DLAYER
10
-0.35895687158472356
20
28.913692784027013
30
-9.956516437304991e-14
 70
     32
  0
VERTEX
  8
MY3DLAYER
10
-0.38504257061867797
20
28.917127031456147
30
-9.956516437304991e-14
 70
     32
  0
VERTEX
  8
MY3DLAYER
10
-0.4111282696526324
20
28.913692784027013
30
-9.956516437304991e-14
 70
     32
  0
VERTEX
  8
MY3DLAYER
10
-0.43543627140607644
20
28.903624080026546
30
-9.956516437304991e-14
 70
     32
  0
VERTEX
  8
MY3DLAYER
10
-0.45631002573039314
20
28.887607084993054
30
-9.956516437304991e-14
 70
     32
  0
VERTEX
  8
MY3DLAYER
10
-0.4723270207638812
20
28.86673333066874
30
-9.956516437304991e-14
 70
     32
  0
VERTEX
  8
MY3DLAYER
10
-0.48239572476434445
20
28.842425328915294
30
-9.956516437304991e-14
 70
     32
  0
VERTEX
  8
MY3DLAYER
10
-0.4858299721934789
20
28.81633962988134
30
-9.956516437304991e-14
 70
     32
  0
VERTEX
  8
MY3DLAYER
10
-0.4823957247643449
20
28.790253930847385
30
-9.956516437304991e-14
 70
     32
  0
VERTEX
  8
MY3DLAYER
10
-0.47232702076387856
20
28.765945929093938
30
-9.956516437304991e-14
 70
     32
  0
VERTEX
  8
MY3DLAYER
10
-0.45631002573038915
20
28.745072174769625
30
-9.956516437304991e-14
 70
     32
  0
SEQEND
  0
POLYLINE
 8
Component#46
 66
     1
70
    8
 10
0.0
 20
 0.0
 30
0.0
  0
VERTEX
  8
MY3DLAYER
10
-2.42045382195384
20
31.15279077297314
30
-9.956516437304991e-14
 70
     32
  0
VERTEX
  8
MY3DLAYER
10
-2.413478006863412
20
31.09980419681042
30
-9.956516437304991e-14
 70
     32
  0
VERTEX
  8
MY3DLAYER
10
-2.420453821953835
20
31.0468176206477
30
-9.956516437304991e-14
 70
     32
  0
VERTEX
  8
MY3DLAYER
10
-2.440905876954782
20
30.997441992086014
30
-9.956516437304991e-14
 70
     32
  0
VERTEX
  8
MY3DLAYER
10
-2.473440398116554
20
30.95504217861475
30
-9.956516437304991e-14
 70
     32
  0
VERTEX
  8
MY3DLAYER
10
-2.515840211587813
20
30.922507657452975
30
-9.956516437304991e-14
 70
     32
  0
VERTEX
  8
MY3DLAYER
10
-2.565215840149503
20
30.902055602452027
30
-9.956516437304991e-14
 70
     32
  0
VERTEX
  8
MY3DLAYER
10
-2.6182024163122235
20
30.8950797873616
30
-9.956516437304991e-14
 70
     32
  0
VERTEX
  8
MY3DLAYER
10
-2.671188992474945
20
30.902055602452023
30
-9.956516437304991e-14
 70
     32
  0
VERTEX
  8
MY3DLAYER
10
-2.720564621036633
20
30.92250765745297
30
-9.956516437304991e-14
 70
     32
  0
VERTEX
  8
MY3DLAYER
10
-2.7629644345078956
20
30.955042178614743
30
-9.956516437304991e-14
 70
     32
  0
VERTEX
  8
MY3DLAYER
10
-2.7954989556696694
20
30.997441992086003
30
-9.956516437304991e-14
 70
     32
  0
VERTEX
  8
MY3DLAYER
10
-2.815951010670619
20
31.04681762064769
30
-9.956516437304991e-14
 70
     32
  0
VERTEX
  8
MY3DLAYER
10
-2.822926825761047
20
31.09980419681041
30
-9.956516437304991e-14
 70
     32
  0
VERTEX
  8
MY3DLAYER
10
-2.815951010670622
20
31.15279077297313
30
-9.956516437304991e-14
 70
     32
  0
VERTEX
  8
MY3DLAYER
10
-2.795498955669675
20
31.202166401534825
30
-9.956516437304991e-14
 70
     32
  0
VERTEX
  8
MY3DLAYER
10
-2.7629644345079036
20
31.244566215006085
30
-9.956516437304991e-14
 70
     32
  0
VERTEX
  8
MY3DLAYER
10
-2.720564621036642
20
31.277100736167856
30
-9.956516437304991e-14
 70
     32
  0
VERTEX
  8
MY3DLAYER
10
-2.6711889924749554
20
31.297552791168805
30
-9.956516437304991e-14
 70
     32
  0
VERTEX
  8
MY3DLAYER
10
-2.6182024163122346
20
31.304528606259236
30
-9.956516437304991e-14
 70
     32
  0
VERTEX
  8
MY3DLAYER
10
-2.5652158401495138
20
31.297552791168812
30
-9.956516437304991e-14
 70
     32
  0
VERTEX
  8
MY3DLAYER
10
-2.5158402115878244
20
31.277100736167863
30
-9.956516437304991e-14
 70
     32
  0
VERTEX
  8
MY3DLAYER
10
-2.473440398116562
20
31.244566215006092
30
-9.956516437304991e-14
 70
     32
  0
VERTEX
  8
MY3DLAYER
10
-2.4409058769547896
20
31.202166401534832
30
-9.956516437304991e-14
 70
     32
  0
VERTEX
  8
MY3DLAYER
10
-2.42045382195384
20
31.15279077297314
30
-9.956516437304991e-14
 70
     32
  0
SEQEND
  0
POLYLINE
 8
Component#46
 66
     1
70
    8
 10
0.0
 20
 0.0
 30
0.0
  0
VERTEX
  8
MY3DLAYER
10
-2.5921167172782726
20
31.197157350956086
30
-9.956516437304991e-14
 70
     32
  0
VERTEX
  8
MY3DLAYER
10
-2.6182024163122284
20
31.20059159838522
30
-9.956516437304991e-14
 70
     32
  0
VERTEX
  8
MY3DLAYER
10
-2.6442881153461815
20
31.197157350956086
30
-9.956516437304991e-14
 70
     32
  0
VERTEX
  8
MY3DLAYER
10
-2.668596117099627
20
31.187088646955615
30
-9.956516437304991e-14
 70
     32
  0
VERTEX
  8
MY3DLAYER
10
-2.6894698714239427
20
31.171071651922126
30
-9.956516437304991e-14
 70
     32
  0
VERTEX
  8
MY3DLAYER
10
-2.7054868664574308
20
31.150197897597813
30
-9.956516437304991e-14
 70
     32
  0
VERTEX
  8
MY3DLAYER
10
-2.715555570457895
20
31.125889895844367
30
-9.956516437304991e-14
 70
     32
  0
VERTEX
  8
MY3DLAYER
10
-2.718989817887029
20
31.099804196810414
30
-9.956516437304991e-14
 70
     32
  0
VERTEX
  8
MY3DLAYER
10
-2.7155555704578944
20
31.073718497776458
30
-9.956516437304991e-14
 70
     32
  0
VERTEX
  8
MY3DLAYER
10
-2.705486866457427
20
31.04941049602301
30
-9.956516437304991e-14
 70
     32
  0
VERTEX
  8
MY3DLAYER
10
-2.6894698714239387
20
31.028536741698698
30
-9.956516437304991e-14
 70
     32
  0
VERTEX
  8
MY3DLAYER
10
-2.668596117099625
20
31.012519746665212
30
-9.956516437304991e-14
 70
     32
  0
VERTEX
  8
MY3DLAYER
10
-2.6442881153461784
20
31.002451042664745
30
-9.956516437304991e-14
 70
     32
  0
VERTEX
  8
MY3DLAYER
10
-2.618202416312224
20
30.99901679523561
30
-9.956516437304991e-14
 70
     32
  0
VERTEX
  8
MY3DLAYER
10
-2.5921167172782678
20
31.00245104266475
30
-9.956516437304991e-14
 70
     32
  0
VERTEX
  8
MY3DLAYER
10
-2.567808715524821
20
31.012519746665212
30
-9.956516437304991e-14
 70
     32
  0
VERTEX
  8
MY3DLAYER
10
-2.5469349612005083
20
31.0285367416987
30
-9.956516437304991e-14
 70
     32
  0
VERTEX
  8
MY3DLAYER
10
-2.5309179661670207
20
31.049410496023015
30
-9.956516437304991e-14
 70
     32
  0
VERTEX
  8
MY3DLAYER
10
-2.5208492621665544
20
31.073718497776465
30
-9.956516437304991e-14
 70
     32
  0
VERTEX
  8
MY3DLAYER
10
-2.5174150147374235
20
31.099804196810418
30
-9.956516437304991e-14
 70
     32
  0
VERTEX
  8
MY3DLAYER
10
-2.5208492621665575
20
31.125889895844374
30
-9.956516437304991e-14
 70
     32
  0
VERTEX
  8
MY3DLAYER
10
-2.5309179661670216
20
31.15019789759782
30
-9.956516437304991e-14
 70
     32
  0
VERTEX
  8
MY3DLAYER
10
-2.5469349612005123
20
31.17107165192213
30
-9.956516437304991e-14
 70
     32
  0
VERTEX
  8
MY3DLAYER
10
-2.5678087155248246
20
31.18708864695562
30
-9.956516437304991e-14
 70
     32
  0
VERTEX
  8
MY3DLAYER
10
-2.5921167172782726
20
31.197157350956086
30
-9.956516437304991e-14
 70
     32
  0
SEQEND
  0
POLYLINE
 8
Component#46
 66
     1
70
    8
 10
0.0
 20
 0.0
 30
0.0
  0
VERTEX
  8
MY3DLAYER
10
-0.43543627140607377
20
28.729055179736136
30
-9.956516437304991e-14
 70
     32
  0
VERTEX
  8
MY3DLAYER
10
-0.45631002573038915
20
28.745072174769625
30
-9.956516437304991e-14
 70
     32
  0
VERTEX
  8
MY3DLAYER
10
-0.47232702076387856
20
28.765945929093938
30
-9.956516437304991e-14
 70
     32
  0
VERTEX
  8
MY3DLAYER
10
-0.4823957247643449
20
28.790253930847385
30
-9.956516437304991e-14
 70
     32
  0
VERTEX
  8
MY3DLAYER
10
-0.4858299721934789
20
28.81633962988134
30
-9.956516437304991e-14
 70
     32
  0
VERTEX
  8
MY3DLAYER
10
-0.48239572476434445
20
28.842425328915294
30
-9.956516437304991e-14
 70
     32
  0
VERTEX
  8
MY3DLAYER
10
-0.4723270207638812
20
28.86673333066874
30
-9.956516437304991e-14
 70
     32
  0
VERTEX
  8
MY3DLAYER
10
-0.45631002573039314
20
28.887607084993054
30
-9.956516437304991e-14
 70
     32
  0
VERTEX
  8
MY3DLAYER
10
-0.43543627140607644
20
28.903624080026546
30
-9.956516437304991e-14
 70
     32
  0
VERTEX
  8
MY3DLAYER
10
-0.4111282696526324
20
28.913692784027013
30
-9.956516437304991e-14
 70
     32
  0
VERTEX
  8
MY3DLAYER
10
-0.38504257061867797
20
28.917127031456147
30
-9.956516437304991e-14
 70
     32
  0
VERTEX
  8
MY3DLAYER
10
-0.35895687158472356
20
28.913692784027013
30
-9.956516437304991e-14
 70
     32
  0
VERTEX
  8
MY3DLAYER
10
-0.3346488698312742
20
28.903624080026546
30
-9.956516437304991e-14
 70
     32
  0
VERTEX
  8
MY3DLAYER
10
-0.313775115506961
20
28.887607084993057
30
-9.956516437304991e-14
 70
     32
  0
VERTEX
  8
MY3DLAYER
10
-0.29775812047347294
20
28.866733330668744
30
-9.956516437304991e-14
 70
     32
  0
VERTEX
  8
MY3DLAYER
10
-0.2876894164730066
20
28.842425328915297
30
-9.956516437304991e-14
 70
     32
  0
VERTEX
  8
MY3DLAYER
10
-0.28425516904387127
20
28.81633962988134
30
-9.956516437304991e-14
 70
     32
  0
VERTEX
  8
MY3DLAYER
10
-0.2876894164730057
20
28.790253930847392
30
-9.956516437304991e-14
 70
     32
  0
VERTEX
  8
MY3DLAYER
10
-0.2977581204734685
20
28.765945929093945
30
-9.956516437304991e-14
 70
     32
  0
VERTEX
  8
MY3DLAYER
10
-0.3137751155069566
20
28.74507217476963
30
-9.956516437304991e-14
 70
     32
  0
VERTEX
  8
MY3DLAYER
10
-0.33464886983126974
20
28.72905517973614
30
-9.956516437304991e-14
 70
     32
  0
VERTEX
  8
MY3DLAYER
10
-0.35895687158471823
20
28.718986475735672
30
-9.956516437304991e-14
 70
     32
  0
VERTEX
  8
MY3DLAYER
10
-0.38504257061867264
20
28.71555222830654
30
-9.956516437304991e-14
 70
     32
  0
VERTEX
  8
MY3DLAYER
10
-0.41112826965262705
20
28.71898647573567
30
-9.956516437304991e-14
 70
     32
  0
VERTEX
  8
MY3DLAYER
10
-0.43543627140607377
20
28.729055179736136
30
-9.956516437304991e-14
 70
     32
  0
SEQEND
  0
POLYLINE
 8
Component#46
 66
     1
70
    8
 10
0.0
 20
 0.0
 30
0.0
  0
VERTEX
  8
MY3DLAYER
10
3.5258796043631424
20
27.931584900932627
30
-9.956516437304991e-14
 70
     32
  0
VERTEX
  8
MY3DLAYER
10
3.5015716026096957
20
27.94165360493309
30
-9.956516437304991e-14
 70
     32
  0
VERTEX
  8
MY3DLAYER
10
3.4806978482853816
20
27.95767059996658
30
-9.956516437304991e-14
 70
     32
  0
VERTEX
  8
MY3DLAYER
10
3.4646808532518927
20
27.978544354290893
30
-9.956516437304991e-14
 70
     32
  0
VERTEX
  8
MY3DLAYER
10
3.4546121492514263
20
28.00285235604434
30
-9.956516437304991e-14
 70
     32
  0
VERTEX
  8
MY3DLAYER
10
3.451177901822292
20
28.028938055078296
30
-9.956516437304991e-14
 70
     32
  0
VERTEX
  8
MY3DLAYER
10
3.4546121492514246
20
28.055023754112252
30
-9.956516437304991e-14
 70
     32
  0
VERTEX
  8
MY3DLAYER
10
3.46468085325189
20
28.0793317558657
30
-9.956516437304991e-14
 70
     32
  0
VERTEX
  8
MY3DLAYER
10
3.480697848285378
20
28.100205510190012
30
-9.956516437304991e-14
 70
     32
  0
VERTEX
  8
MY3DLAYER
10
3.501571602609695
20
28.116222505223497
30
-9.956516437304991e-14
 70
     32
  0
VERTEX
  8
MY3DLAYER
10
3.525879604363139
20
28.126291209223965
30
-9.956516437304991e-14
 70
     32
  0
VERTEX
  8
MY3DLAYER
10
3.551965303397088
20
28.129725456653098
30
-9.956516437304991e-14
 70
     32
  0
VERTEX
  8
MY3DLAYER
10
3.578051002431046
20
28.126291209223968
30
-9.956516437304991e-14
 70
     32
  0
VERTEX
  8
MY3DLAYER
10
3.6023590041844926
20
28.116222505223504
30
-9.956516437304991e-14
 70
     32
  0
VERTEX
  8
MY3DLAYER
10
3.6232327585088058
20
28.100205510190015
30
-9.956516437304991e-14
 70
     32
  0
VERTEX
  8
MY3DLAYER
10
3.6392497535422965
20
28.079331755865702
30
-9.956516437304991e-14
 70
     32
  0
VERTEX
  8
MY3DLAYER
10
3.649318457542762
20
28.055023754112256
30
-9.956516437304991e-14
 70
     32
  0
VERTEX
  8
MY3DLAYER
10
3.6527527049718955
20
28.0289380550783
30
-9.956516437304991e-14
 70
     32
  0
VERTEX
  8
MY3DLAYER
10
3.6493184575427655
20
28.002852356044343
30
-9.956516437304991e-14
 70
     32
  0
VERTEX
  8
MY3DLAYER
10
3.6392497535422965
20
27.978544354290896
30
-9.956516437304991e-14
 70
     32
  0
VERTEX
  8
MY3DLAYER
10
3.6232327585088093
20
27.957670599966583
30
-9.956516437304991e-14
 70
     32
  0
VERTEX
  8
MY3DLAYER
10
3.602359004184496
20
27.941653604933094
30
-9.956516437304991e-14
 70
     32
  0
VERTEX
  8
MY3DLAYER
10
3.5780510024310512
20
27.931584900932627
30
-9.956516437304991e-14
 70
     32
  0
VERTEX
  8
MY3DLAYER
10
3.551965303397095
20
27.928150653503494
30
-9.956516437304991e-14
 70
     32
  0
VERTEX
  8
MY3DLAYER
10
3.5258796043631424
20
27.931584900932627
30
-9.956516437304991e-14
 70
     32
  0
SEQEND
  0
POLYLINE
 8
Component#46
 66
     1
70
    8
 10
0.0
 20
 0.0
 30
0.0
  0
VERTEX
  8
MY3DLAYER
10
3.5258796043631175
20
28.913692784027116
30
-9.956516437304991e-14
 70
     32
  0
VERTEX
  8
MY3DLAYER
10
3.5519653033970666
20
28.91712703145625
30
-9.956516437304991e-14
 70
     32
  0
VERTEX
  8
MY3DLAYER
10
3.5780510024310264
20
28.91369278402712
30
-9.956516437304991e-14
 70
     32
  0
VERTEX
  8
MY3DLAYER
10
3.6023590041844713
20
28.903624080026653
30
-9.956516437304991e-14
 70
     32
  0
VERTEX
  8
MY3DLAYER
10
3.6232327585087862
20
28.887607084993164
30
-9.956516437304991e-14
 70
     32
  0
VERTEX
  8
MY3DLAYER
10
3.639249753542275
20
28.86673333066885
30
-9.956516437304991e-14
 70
     32
  0
VERTEX
  8
MY3DLAYER
10
3.6493184575427424
20
28.842425328915404
30
-9.956516437304991e-14
 70
     32
  0
VERTEX
  8
MY3DLAYER
10
3.652752704971876
20
28.816339629881448
30
-9.956516437304991e-14
 70
     32
  0
VERTEX
  8
MY3DLAYER
10
3.6493184575427406
20
28.790253930847495
30
-9.956516437304991e-14
 70
     32
  0
VERTEX
  8
MY3DLAYER
10
3.639249753542277
20
28.76594592909405
30
-9.956516437304991e-14
 70
     32
  0
VERTEX
  8
MY3DLAYER
10
3.62323275850879
20
28.745072174769735
30
-9.956516437304991e-14
 70
     32
  0
VERTEX
  8
MY3DLAYER
10
3.602359004184475
20
28.729055179736246
30
-9.956516437304991e-14
 70
     32
  0
VERTEX
  8
MY3DLAYER
10
3.578051002431028
20
28.71898647573578
30
-9.956516437304991e-14
 70
     32
  0
VERTEX
  8
MY3DLAYER
10
3.5519653033970737
20
28.715552228306642
30
-9.956516437304991e-14
 70
     32
  0
VERTEX
  8
MY3DLAYER
10
3.525879604363123
20
28.718986475735775
30
-9.956516437304991e-14
 70
     32
  0
VERTEX
  8
MY3DLAYER
10
3.5015716026096744
20
28.729055179736243
30
-9.956516437304991e-14
 70
     32
  0
VERTEX
  8
MY3DLAYER
10
3.480697848285361
20
28.74507217476973
30
-9.956516437304991e-14
 70
     32
  0
VERTEX
  8
MY3DLAYER
10
3.4646808532518696
20
28.765945929094045
30
-9.956516437304991e-14
 70
     32
  0
VERTEX
  8
MY3DLAYER
10
3.454612149251405
20
28.79025393084749
30
-9.956516437304991e-14
 70
     32
  0
VERTEX
  8
MY3DLAYER
10
3.4511779018222706
20
28.816339629881444
30
-9.956516437304991e-14
 70
     32
  0
VERTEX
  8
MY3DLAYER
10
3.454612149251406
20
28.8424253289154
30
-9.956516437304991e-14
 70
     32
  0
VERTEX
  8
MY3DLAYER
10
3.4646808532518687
20
28.866733330668847
30
-9.956516437304991e-14
 70
     32
  0
VERTEX
  8
MY3DLAYER
10
3.4806978482853568
20
28.88760708499316
30
-9.956516437304991e-14
 70
     32
  0
VERTEX
  8
MY3DLAYER
10
3.5015716026096717
20
28.90362408002665
30
-9.956516437304991e-14
 70
     32
  0
VERTEX
  8
MY3DLAYER
10
3.5258796043631175
20
28.913692784027116
30
-9.956516437304991e-14
 70
     32
  0
SEQEND
  0
POLYLINE
 8
Component#46
 66
     1
70
    8
 10
0.0
 20
 0.0
 30
0.0
  0
VERTEX
  8
MY3DLAYER
10
-2.6182024163122284
20
31.20059159838522
30
-9.956516437304991e-14
 70
     32
  0
VERTEX
  8
MY3DLAYER
10
-2.5921167172782726
20
31.197157350956086
30
-9.956516437304991e-14
 70
     32
  0
VERTEX
  8
MY3DLAYER
10
-2.5678087155248246
20
31.18708864695562
30
-9.956516437304991e-14
 70
     32
  0
VERTEX
  8
MY3DLAYER
10
-2.5469349612005123
20
31.17107165192213
30
-9.956516437304991e-14
 70
     32
  0
VERTEX
  8
MY3DLAYER
10
-2.5309179661670216
20
31.15019789759782
30
-9.956516437304991e-14
 70
     32
  0
VERTEX
  8
MY3DLAYER
10
-2.5208492621665575
20
31.125889895844374
30
-9.956516437304991e-14
 70
     32
  0
VERTEX
  8
MY3DLAYER
10
-2.5174150147374235
20
31.099804196810418
30
-9.956516437304991e-14
 70
     32
  0
VERTEX
  8
MY3DLAYER
10
-2.5208492621665544
20
31.073718497776465
30
-9.956516437304991e-14
 70
     32
  0
VERTEX
  8
MY3DLAYER
10
-2.5309179661670207
20
31.049410496023015
30
-9.956516437304991e-14
 70
     32
  0
VERTEX
  8
MY3DLAYER
10
-2.5469349612005083
20
31.0285367416987
30
-9.956516437304991e-14
 70
     32
  0
VERTEX
  8
MY3DLAYER
10
-2.567808715524821
20
31.012519746665212
30
-9.956516437304991e-14
 70
     32
  0
VERTEX
  8
MY3DLAYER
10
-2.5921167172782678
20
31.00245104266475
30
-9.956516437304991e-14
 70
     32
  0
VERTEX
  8
MY3DLAYER
10
-2.618202416312224
20
30.99901679523561
30
-9.956516437304991e-14
 70
     32
  0
VERTEX
  8
MY3DLAYER
10
-2.6442881153461784
20
31.002451042664745
30
-9.956516437304991e-14
 70
     32
  0
VERTEX
  8
MY3DLAYER
10
-2.668596117099625
20
31.012519746665212
30
-9.956516437304991e-14
 70
     32
  0
VERTEX
  8
MY3DLAYER
10
-2.6894698714239387
20
31.028536741698698
30
-9.956516437304991e-14
 70
     32
  0
VERTEX
  8
MY3DLAYER
10
-2.705486866457427
20
31.04941049602301
30
-9.956516437304991e-14
 70
     32
  0
VERTEX
  8
MY3DLAYER
10
-2.7155555704578944
20
31.073718497776458
30
-9.956516437304991e-14
 70
     32
  0
VERTEX
  8
MY3DLAYER
10
-2.718989817887029
20
31.099804196810414
30
-9.956516437304991e-14
 70
     32
  0
VERTEX
  8
MY3DLAYER
10
-2.715555570457895
20
31.125889895844367
30
-9.956516437304991e-14
 70
     32
  0
VERTEX
  8
MY3DLAYER
10
-2.7054868664574308
20
31.150197897597813
30
-9.956516437304991e-14
 70
     32
  0
VERTEX
  8
MY3DLAYER
10
-2.6894698714239427
20
31.171071651922126
30
-9.956516437304991e-14
 70
     32
  0
VERTEX
  8
MY3DLAYER
10
-2.668596117099627
20
31.187088646955615
30
-9.956516437304991e-14
 70
     32
  0
VERTEX
  8
MY3DLAYER
10
-2.6442881153461815
20
31.197157350956086
30
-9.956516437304991e-14
 70
     32
  0
VERTEX
  8
MY3DLAYER
10
-2.6182024163122284
20
31.20059159838522
30
-9.956516437304991e-14
 70
     32
  0
SEQEND
  0
POLYLINE
 8
Component#46
 66
     1
70
    8
 10
0.0
 20
 0.0
 30
0.0
  0
VERTEX
  8
MY3DLAYER
10
-0.45631002573036605
20
27.957670599966473
30
-9.956516437304991e-14
 70
     32
  0
VERTEX
  8
MY3DLAYER
10
-0.4723270207638559
20
27.97854435429079
30
-9.956516437304991e-14
 70
     32
  0
VERTEX
  8
MY3DLAYER
10
-0.4823957247643218
20
28.002852356044237
30
-9.956516437304991e-14
 70
     32
  0
VERTEX
  8
MY3DLAYER
10
-0.48582997219345625
20
28.02893805507819
30
-9.956516437304991e-14
 70
     32
  0
VERTEX
  8
MY3DLAYER
10
-0.48239572476432313
20
28.055023754112145
30
-9.956516437304991e-14
 70
     32
  0
VERTEX
  8
MY3DLAYER
10
-0.47232702076386035
20
28.079331755865592
30
-9.956516437304991e-14
 70
     32
  0
VERTEX
  8
MY3DLAYER
10
-0.45631002573037005
20
28.100205510189905
30
-9.956516437304991e-14
 70
     32
  0
VERTEX
  8
MY3DLAYER
10
-0.4354362714060551
20
28.116222505223394
30
-9.956516437304991e-14
 70
     32
  0
VERTEX
  8
MY3DLAYER
10
-0.4111282696526093
20
28.12629120922386
30
-9.956516437304991e-14
 70
     32
  0
VERTEX
  8
MY3DLAYER
10
-0.38504257061865843
20
28.129725456652995
30
-9.956516437304991e-14
 70
     32
  0
VERTEX
  8
MY3DLAYER
10
-0.35895687158470047
20
28.12629120922386
30
-9.956516437304991e-14
 70
     32
  0
VERTEX
  8
MY3DLAYER
10
-0.33464886983125286
20
28.116222505223398
30
-9.956516437304991e-14
 70
     32
  0
VERTEX
  8
MY3DLAYER
10
-0.3137751155069397
20
28.10020551018991
30
-9.956516437304991e-14
 70
     32
  0
VERTEX
  8
MY3DLAYER
10
-0.29775812047344985
20
28.079331755865596
30
-9.956516437304991e-14
 70
     32
  0
VERTEX
  8
MY3DLAYER
10
-0.2876894164729844
20
28.05502375411215
30
-9.956516437304991e-14
 70
     32
  0
VERTEX
  8
MY3DLAYER
10
-0.28425516904384995
20
28.028938055078193
30
-9.956516437304991e-14
 70
     32
  0
VERTEX
  8
MY3DLAYER
10
-0.2876894164729844
20
28.002852356044237
30
-9.956516437304991e-14
 70
     32
  0
VERTEX
  8
MY3DLAYER
10
-0.2977581204734472
20
27.97854435429079
30
-9.956516437304991e-14
 70
     32
  0
VERTEX
  8
MY3DLAYER
10
-0.31377511550693615
20
27.957670599966477
30
-9.956516437304991e-14
 70
     32
  0
VERTEX
  8
MY3DLAYER
10
-0.3346488698312502
20
27.941653604932988
30
-9.956516437304991e-14
 70
     32
  0
VERTEX
  8
MY3DLAYER
10
-0.3589568715846969
20
27.93158490093252
30
-9.956516437304991e-14
 70
     32
  0
VERTEX
  8
MY3DLAYER
10
-0.3850425706186531
20
27.92815065350339
30
-9.956516437304991e-14
 70
     32
  0
VERTEX
  8
MY3DLAYER
10
-0.41112826965260574
20
27.93158490093252
30
-9.956516437304991e-14
 70
     32
  0
VERTEX
  8
MY3DLAYER
10
-0.43543627140605423
20
27.941653604932988
30
-9.956516437304991e-14
 70
     32
  0
VERTEX
  8
MY3DLAYER
10
-0.45631002573036605
20
27.957670599966473
30
-9.956516437304991e-14
 70
     32
  0
SEQEND
  0
POLYLINE
 8
Component#47
 66
     1
70
    8
 10
0.0
 20
 0.0
 30
0.0
  0
VERTEX
  8
MY3DLAYER
10
-5.2712146115626615
20
35.376463215438164
30
-1.5465141906422962e-12
 70
     32
  0
VERTEX
  8
MY3DLAYER
10
-5.274648858991793
20
35.40254891447213
30
-1.5465141906422962e-12
 70
     32
  0
VERTEX
  8
MY3DLAYER
10
-5.271214611562658
20
35.42863461350608
30
-1.5465141906422962e-12
 70
     32
  0
VERTEX
  8
MY3DLAYER
10
-5.261145907562193
20
35.45294261525952
30
-1.5465141906422962e-12
 70
     32
  0
VERTEX
  8
MY3DLAYER
10
-5.245128912528703
20
35.47381636958384
30
-1.5465141906422962e-12
 70
     32
  0
VERTEX
  8
MY3DLAYER
10
-5.224255158204389
20
35.489833364617326
30
-1.5465141906422962e-12
 70
     32
  0
VERTEX
  8
MY3DLAYER
10
-5.199947156450941
20
35.499902068617786
30
-1.5465141906422962e-12
 70
     32
  0
VERTEX
  8
MY3DLAYER
10
-5.173861457416988
20
35.50333631604692
30
-1.5465141906422962e-12
 70
     32
  0
VERTEX
  8
MY3DLAYER
10
-5.147775758383032
20
35.499902068617786
30
-1.5465141906422962e-12
 70
     32
  0
VERTEX
  8
MY3DLAYER
10
-5.123467756629586
20
35.48983336461732
30
-1.5465141906422962e-12
 70
     32
  0
VERTEX
  8
MY3DLAYER
10
-5.102594002305274
20
35.47381636958383
30
-1.5465141906422962e-12
 70
     32
  0
VERTEX
  8
MY3DLAYER
10
-5.086577007271787
20
35.452942615259516
30
-1.5465141906422962e-12
 70
     32
  0
VERTEX
  8
MY3DLAYER
10
-5.076508303271321
20
35.42863461350607
30
-1.5465141906422962e-12
 70
     32
  0
VERTEX
  8
MY3DLAYER
10
-5.073074055842189
20
35.40254891447211
30
-1.5465141906422962e-12
 70
     32
  0
VERTEX
  8
MY3DLAYER
10
-5.076508303271324
20
35.37646321543816
30
-1.5465141906422962e-12
 70
     32
  0
VERTEX
  8
MY3DLAYER
10
-5.086577007271792
20
35.35215521368471
30
-1.5465141906422962e-12
 70
     32
  0
VERTEX
  8
MY3DLAYER
10
-5.102594002305283
20
35.3312814593604
30
-1.5465141906422962e-12
 70
     32
  0
VERTEX
  8
MY3DLAYER
10
-5.123467756629597
20
35.31526446432691
30
-1.5465141906422962e-12
 70
     32
  0
VERTEX
  8
MY3DLAYER
10
-5.147775758383045
20
35.30519576032645
30
-1.5465141906422962e-12
 70
     32
  0
VERTEX
  8
MY3DLAYER
10
-5.173861457417001
20
35.301761512897315
30
-1.5465141906422962e-12
 70
     32
  0
VERTEX
  8
MY3DLAYER
10
-5.199947156450953
20
35.30519576032645
30
-1.5465141906422962e-12
 70
     32
  0
VERTEX
  8
MY3DLAYER
10
-5.224255158204396
20
35.315264464326916
30
-1.5465141906422962e-12
 70
     32
  0
VERTEX
  8
MY3DLAYER
10
-5.245128912528708
20
35.331281459360405
30
-1.5465141906422962e-12
 70
     32
  0
VERTEX
  8
MY3DLAYER
10
-5.261145907562199
20
35.352155213684725
30
-1.5465141906422962e-12
 70
     32
  0
VERTEX
  8
MY3DLAYER
10
-5.2712146115626615
20
35.376463215438164
30
-1.5465141906422962e-12
 70
     32
  0
SEQEND
  0
POLYLINE
 8
Component#47
 66
     1
70
    8
 10
0.0
 20
 0.0
 30
0.0
  0
VERTEX
  8
MY3DLAYER
10
-5.245128912528815
20
33.559749175895824
30
-1.5465141906422962e-12
 70
     32
  0
VERTEX
  8
MY3DLAYER
10
-5.261145907562303
20
33.580622930220144
30
-1.5465141906422962e-12
 70
     32
  0
VERTEX
  8
MY3DLAYER
10
-5.271214611562769
20
33.604930931973584
30
-1.5465141906422962e-12
 70
     32
  0
VERTEX
  8
MY3DLAYER
10
-5.274648858991901
20
33.63101663100755
30
-1.5465141906422962e-12
 70
     32
  0
VERTEX
  8
MY3DLAYER
10
-5.271214611562765
20
33.657102330041496
30
-1.5465141906422962e-12
 70
     32
  0
VERTEX
  8
MY3DLAYER
10
-5.261145907562296
20
33.68141033179494
30
-1.5465141906422962e-12
 70
     32
  0
VERTEX
  8
MY3DLAYER
10
-5.2451289125288065
20
33.702284086119256
30
-1.5465141906422962e-12
 70
     32
  0
VERTEX
  8
MY3DLAYER
10
-5.2242551582044925
20
33.718301081152745
30
-1.5465141906422962e-12
 70
     32
  0
VERTEX
  8
MY3DLAYER
10
-5.199947156451045
20
33.728369785153205
30
-1.5465141906422962e-12
 70
     32
  0
VERTEX
  8
MY3DLAYER
10
-5.173861457417096
20
33.73180403258234
30
-1.5465141906422962e-12
 70
     32
  0
VERTEX
  8
MY3DLAYER
10
-5.14777575838314
20
33.728369785153205
30
-1.5465141906422962e-12
 70
     32
  0
VERTEX
  8
MY3DLAYER
10
-5.123467756629694
20
33.71830108115274
30
-1.5465141906422962e-12
 70
     32
  0
VERTEX
  8
MY3DLAYER
10
-5.1025940023053815
20
33.70228408611925
30
-1.5465141906422962e-12
 70
     32
  0
VERTEX
  8
MY3DLAYER
10
-5.086577007271893
20
33.681410331794936
30
-1.5465141906422962e-12
 70
     32
  0
VERTEX
  8
MY3DLAYER
10
-5.076508303271428
20
33.65710233004149
30
-1.5465141906422962e-12
 70
     32
  0
VERTEX
  8
MY3DLAYER
10
-5.073074055842296
20
33.63101663100753
30
-1.5465141906422962e-12
 70
     32
  0
VERTEX
  8
MY3DLAYER
10
-5.0765083032714315
20
33.60493093197358
30
-1.5465141906422962e-12
 70
     32
  0
VERTEX
  8
MY3DLAYER
10
-5.0865770072719005
20
33.58062293022013
30
-1.5465141906422962e-12
 70
     32
  0
VERTEX
  8
MY3DLAYER
10
-5.1025940023053895
20
33.55974917589582
30
-1.5465141906422962e-12
 70
     32
  0
VERTEX
  8
MY3DLAYER
10
-5.123467756629704
20
33.54373218086233
30
-1.5465141906422962e-12
 70
     32
  0
VERTEX
  8
MY3DLAYER
10
-5.147775758383151
20
33.53366347686187
30
-1.5465141906422962e-12
 70
     32
  0
VERTEX
  8
MY3DLAYER
10
-5.173861457417107
20
33.530229229432734
30
-1.5465141906422962e-12
 70
     32
  0
VERTEX
  8
MY3DLAYER
10
-5.199947156451061
20
33.53366347686187
30
-1.5465141906422962e-12
 70
     32
  0
VERTEX
  8
MY3DLAYER
10
-5.224255158204503
20
33.543732180862335
30
-1.5465141906422962e-12
 70
     32
  0
VERTEX
  8
MY3DLAYER
10
-5.245128912528815
20
33.559749175895824
30
-1.5465141906422962e-12
 70
     32
  0
SEQEND
  0
POLYLINE
 8
Component#47
 66
     1
70
    8
 10
0.0
 20
 0.0
 30
0.0
  0
VERTEX
  8
MY3DLAYER
10
-2.5644126385194115
20
34.4689290312559
30
-1.5465141906422962e-12
 70
     32
  0
VERTEX
  8
MY3DLAYER
10
-2.5887206402728586
20
34.45886032725544
30
-1.5465141906422962e-12
 70
     32
  0
VERTEX
  8
MY3DLAYER
10
-2.6148063393068153
20
34.4554260798263
30
-1.5465141906422962e-12
 70
     32
  0
VERTEX
  8
MY3DLAYER
10
-2.640892038340771
20
34.45886032725544
30
-1.5465141906422962e-12
 70
     32
  0
VERTEX
  8
MY3DLAYER
10
-2.6652000400942173
20
34.468929031255904
30
-1.5465141906422962e-12
 70
     32
  0
VERTEX
  8
MY3DLAYER
10
-2.6860737944185296
20
34.48494602628939
30
-1.5465141906422962e-12
 70
     32
  0
VERTEX
  8
MY3DLAYER
10
-2.702090789452013
20
34.505819780613706
30
-1.5465141906422962e-12
 70
     32
  0
VERTEX
  8
MY3DLAYER
10
-2.712159493452479
20
34.53012778236715
30
-1.5465141906422962e-12
 70
     32
  0
VERTEX
  8
MY3DLAYER
10
-2.7155937408816113
20
34.55621348140111
30
-1.5465141906422962e-12
 70
     32
  0
VERTEX
  8
MY3DLAYER
10
-2.712159493452476
20
34.582299180435065
30
-1.5465141906422962e-12
 70
     32
  0
VERTEX
  8
MY3DLAYER
10
-2.702090789452007
20
34.60660718218851
30
-1.5465141906422962e-12
 70
     32
  0
VERTEX
  8
MY3DLAYER
10
-2.6860737944185207
20
34.627480936512825
30
-1.5465141906422962e-12
 70
     32
  0
VERTEX
  8
MY3DLAYER
10
-2.6652000400942066
20
34.64349793154631
30
-1.5465141906422962e-12
 70
     32
  0
VERTEX
  8
MY3DLAYER
10
-2.640892038340759
20
34.653566635546774
30
-1.5465141906422962e-12
 70
     32
  0
VERTEX
  8
MY3DLAYER
10
-2.614806339306803
20
34.65700088297591
30
-1.5465141906422962e-12
 70
     32
  0
VERTEX
  8
MY3DLAYER
10
-2.5887206402728467
20
34.653566635546774
30
-1.5465141906422962e-12
 70
     32
  0
VERTEX
  8
MY3DLAYER
10
-2.564412638519401
20
34.64349793154631
30
-1.5465141906422962e-12
 70
     32
  0
VERTEX
  8
MY3DLAYER
10
-2.5435388841950886
20
34.62748093651282
30
-1.5465141906422962e-12
 70
     32
  0
VERTEX
  8
MY3DLAYER
10
-2.5275218891616005
20
34.6066071821885
30
-1.5465141906422962e-12
 70
     32
  0
VERTEX
  8
MY3DLAYER
10
-2.517453185161135
20
34.58229918043505
30
-1.5465141906422962e-12
 70
     32
  0
VERTEX
  8
MY3DLAYER
10
-2.5140189377320032
20
34.5562134814011
30
-1.5465141906422962e-12
 70
     32
  0
VERTEX
  8
MY3DLAYER
10
-2.517453185161138
20
34.530127782367146
30
-1.5465141906422962e-12
 70
     32
  0
VERTEX
  8
MY3DLAYER
10
-2.5275218891616067
20
34.50581978061369
30
-1.5465141906422962e-12
 70
     32
  0
VERTEX
  8
MY3DLAYER
10
-2.5435388841950974
20
34.484946026289386
30
-1.5465141906422962e-12
 70
     32
  0
VERTEX
  8
MY3DLAYER
10
-2.5644126385194115
20
34.4689290312559
30
-1.5465141906422962e-12
 70
     32
  0
SEQEND
  0
POLYLINE
 8
Component#47
 66
     1
70
    8
 10
0.0
 20
 0.0
 30
0.0
  0
VERTEX
  8
MY3DLAYER
10
-3.214018937731935
20
35.608064860680194
30
-1.5465141906422962e-12
 70
     32
  0
VERTEX
  8
MY3DLAYER
10
-3.1931451834076263
20
35.5920478656467
30
-1.5465141906422962e-12
 70
     32
  0
VERTEX
  8
MY3DLAYER
10
-3.1771281883741422
20
35.571174111322385
30
-1.5465141906422962e-12
 70
     32
  0
VERTEX
  8
MY3DLAYER
10
-3.1670594843736763
20
35.54686610956894
30
-1.5465141906422962e-12
 70
     32
  0
VERTEX
  8
MY3DLAYER
10
-3.1636252369445446
20
35.52078041053498
30
-1.5465141906422962e-12
 70
     32
  0
VERTEX
  8
MY3DLAYER
10
-3.16705948437368
20
35.494694711501026
30
-1.5465141906422962e-12
 70
     32
  0
VERTEX
  8
MY3DLAYER
10
-3.177128188374145
20
35.47038670974759
30
-1.5465141906422962e-12
 70
     32
  0
VERTEX
  8
MY3DLAYER
10
-3.193145183407635
20
35.44951295542327
30
-1.5465141906422962e-12
 70
     32
  0
VERTEX
  8
MY3DLAYER
10
-3.2140189377319492
20
35.433495960389784
30
-1.5465141906422962e-12
 70
     32
  0
VERTEX
  8
MY3DLAYER
10
-3.2383269394853964
20
35.423427256389324
30
-1.5465141906422962e-12
 70
     32
  0
VERTEX
  8
MY3DLAYER
10
-3.2644126385193495
20
35.41999300896019
30
-1.5465141906422962e-12
 70
     32
  0
VERTEX
  8
MY3DLAYER
10
-3.2904983375533052
20
35.423427256389324
30
-1.5465141906422962e-12
 70
     32
  0
VERTEX
  8
MY3DLAYER
10
-3.3148063393067515
20
35.433495960389784
30
-1.5465141906422962e-12
 70
     32
  0
VERTEX
  8
MY3DLAYER
10
-3.3356800936310638
20
35.44951295542328
30
-1.5465141906422962e-12
 70
     32
  0
VERTEX
  8
MY3DLAYER
10
-3.3516970886645514
20
35.470386709747594
30
-1.5465141906422962e-12
 70
     32
  0
VERTEX
  8
MY3DLAYER
10
-3.3617657926650173
20
35.49469471150104
30
-1.5465141906422962e-12
 70
     32
  0
VERTEX
  8
MY3DLAYER
10
-3.365200040094149
20
35.520780410535
30
-1.5465141906422962e-12
 70
     32
  0
VERTEX
  8
MY3DLAYER
10
-3.3617657926650137
20
35.54686610956895
30
-1.5465141906422962e-12
 70
     32
  0
VERTEX
  8
MY3DLAYER
10
-3.351697088664545
20
35.57117411132239
30
-1.5465141906422962e-12
 70
     32
  0
VERTEX
  8
MY3DLAYER
10
-3.335680093631055
20
35.59204786564671
30
-1.5465141906422962e-12
 70
     32
  0
VERTEX
  8
MY3DLAYER
10
-3.314806339306741
20
35.608064860680194
30
-1.5465141906422962e-12
 70
     32
  0
VERTEX
  8
MY3DLAYER
10
-3.2904983375532937
20
35.61813356468066
30
-1.5465141906422962e-12
 70
     32
  0
VERTEX
  8
MY3DLAYER
10
-3.264412638519337
20
35.621567812109795
30
-1.5465141906422962e-12
 70
     32
  0
VERTEX
  8
MY3DLAYER
10
-3.238326939485385
20
35.61813356468066
30
-1.5465141906422962e-12
 70
     32
  0
VERTEX
  8
MY3DLAYER
10
-3.214018937731935
20
35.608064860680194
30
-1.5465141906422962e-12
 70
     32
  0
SEQEND
  0
POLYLINE
 8
Component#47
 66
     1
70
    8
 10
0.0
 20
 0.0
 30
0.0
  0
VERTEX
  8
MY3DLAYER
10
-1.6305543708028407
20
35.01133159163725
30
-1.5465141906422962e-12
 70
     32
  0
VERTEX
  8
MY3DLAYER
10
-1.6044686717688847
20
35.00789734420812
30
-1.5465141906422962e-12
 70
     32
  0
VERTEX
  8
MY3DLAYER
10
-1.5801606700154385
20
34.99782864020765
30
-1.5465141906422962e-12
 70
     32
  0
VERTEX
  8
MY3DLAYER
10
-1.5592869156911264
20
34.98181164517416
30
-1.5465141906422962e-12
 70
     32
  0
VERTEX
  8
MY3DLAYER
10
-1.5432699206576423
20
34.96093789084985
30
-1.5465141906422962e-12
 70
     32
  0
VERTEX
  8
MY3DLAYER
10
-1.5332012166571765
20
34.936629889096395
30
-1.5465141906422962e-12
 70
     32
  0
VERTEX
  8
MY3DLAYER
10
-1.5297669692280444
20
34.910544190062446
30
-1.5465141906422962e-12
 70
     32
  0
VERTEX
  8
MY3DLAYER
10
-1.5332012166571762
20
34.88445849102849
30
-1.5465141906422962e-12
 70
     32
  0
VERTEX
  8
MY3DLAYER
10
-1.5432699206576448
20
34.86015048927504
30
-1.5465141906422962e-12
 70
     32
  0
VERTEX
  8
MY3DLAYER
10
-1.559286915691135
20
34.83927673495073
30
-1.5465141906422962e-12
 70
     32
  0
VERTEX
  8
MY3DLAYER
10
-1.5801606700154491
20
34.82325973991725
30
-1.5465141906422962e-12
 70
     32
  0
VERTEX
  8
MY3DLAYER
10
-1.6044686717688965
20
34.81319103591678
30
-1.5465141906422962e-12
 70
     32
  0
VERTEX
  8
MY3DLAYER
10
-1.630554370802853
20
34.80975678848765
30
-1.5465141906422962e-12
 70
     32
  0
VERTEX
  8
MY3DLAYER
10
-1.656640069836809
20
34.81319103591679
30
-1.5465141906422962e-12
 70
     32
  0
VERTEX
  8
MY3DLAYER
10
-1.680948071590255
20
34.82325973991725
30
-1.5465141906422962e-12
 70
     32
  0
VERTEX
  8
MY3DLAYER
10
-1.7018218259145672
20
34.839276734950744
30
-1.5465141906422962e-12
 70
     32
  0
VERTEX
  8
MY3DLAYER
10
-1.7178388209480513
20
34.86015048927505
30
-1.5465141906422962e-12
 70
     32
  0
VERTEX
  8
MY3DLAYER
10
-1.7279075249485172
20
34.884458491028504
30
-1.5465141906422962e-12
 70
     32
  0
VERTEX
  8
MY3DLAYER
10
-1.7313417723776525
20
34.91054419006246
30
-1.5465141906422962e-12
 70
     32
  0
VERTEX
  8
MY3DLAYER
10
-1.7279075249485176
20
34.93662988909641
30
-1.5465141906422962e-12
 70
     32
  0
VERTEX
  8
MY3DLAYER
10
-1.7178388209480486
20
34.960937890849856
30
-1.5465141906422962e-12
 70
     32
  0
VERTEX
  8
MY3DLAYER
10
-1.7018218259145586
20
34.98181164517417
30
-1.5465141906422962e-12
 70
     32
  0
VERTEX
  8
MY3DLAYER
10
-1.6809480715902443
20
34.99782864020766
30
-1.5465141906422962e-12
 70
     32
  0
VERTEX
  8
MY3DLAYER
10
-1.6566400698367971
20
35.007897344208125
30
-1.5465141906422962e-12
 70
     32
  0
VERTEX
  8
MY3DLAYER
10
-1.6305543708028407
20
35.01133159163725
30
-1.5465141906422962e-12
 70
     32
  0
SEQEND
  0
POLYLINE
 8
Component#47
 66
     1
70
    8
 10
0.0
 20
 0.0
 30
0.0
  0
VERTEX
  8
MY3DLAYER
10
-4.078769153092882
20
35.41232070987936
30
-1.5465141906422962e-12
 70
     32
  0
VERTEX
  8
MY3DLAYER
10
-4.064260588308914
20
35.49692244678593
30
-1.5465141906422962e-12
 70
     32
  0
VERTEX
  8
MY3DLAYER
10
-4.044605486919445
20
35.58047859155738
30
-1.5465141906422962e-12
 70
     32
  0
VERTEX
  8
MY3DLAYER
10
-4.019877422921027
20
35.662676372492086
30
-1.5465141906422962e-12
 70
     32
  0
VERTEX
  8
MY3DLAYER
10
-3.990168959687379
20
35.74320810258647
30
-1.5465141906422962e-12
 70
     32
  0
VERTEX
  8
MY3DLAYER
10
-3.9555913034813597
20
35.82177233128502
30
-1.5465141906422962e-12
 70
     32
  0
VERTEX
  8
MY3DLAYER
10
-3.9162738871819043
20
35.898074972885645
30
-1.5465141906422962e-12
 70
     32
  0
VERTEX
  8
MY3DLAYER
10
-3.8723638857841447
20
35.97183040737659
30
-1.5465141906422962e-12
 70
     32
  0
VERTEX
  8
MY3DLAYER
10
-3.8240256654863294
20
36.04276254958405
30
-1.5465141906422962e-12
 70
     32
  0
VERTEX
  8
MY3DLAYER
10
-3.7714401684257277
20
36.11060588262856
30
-1.5465141906422962e-12
 70
     32
  0
VERTEX
  8
MY3DLAYER
10
-3.7148042353666217
20
36.175106451821584
30
-1.5465141906422962e-12
 70
     32
  0
VERTEX
  8
MY3DLAYER
10
-3.654329868875738
20
36.23602281528186
30
-1.5465141906422962e-12
 70
     32
  0
VERTEX
  8
MY3DLAYER
10
-3.590243439743212
20
36.29312694771325
30
-1.5465141906422962e-12
 70
     32
  0
VERTEX
  8
MY3DLAYER
10
-3.5227848396197072
20
36.346205093960805
30
-1.5465141906422962e-12
 70
     32
  0
VERTEX
  8
MY3DLAYER
10
-3.452206583041517
20
36.395058569150216
30
-1.5465141906422962e-12
 70
     32
  0
VERTEX
  8
MY3DLAYER
10
-3.378772862205024
20
36.43950450241533
30
-1.5465141906422962e-12
 70
     32
  0
VERTEX
  8
MY3DLAYER
10
-3.30275855802877
20
36.47937652142991
30
-1.5465141906422962e-12
 70
     32
  0
VERTEX
  8
MY3DLAYER
10
-3.224448211204895
20
36.514525375181115
30
-1.5465141906422962e-12
 70
     32
  0
VERTEX
  8
MY3DLAYER
10
-3.1441349570916612
20
36.54481949265369
30
-1.5465141906422962e-12
 70
     32
  0
VERTEX
  8
MY3DLAYER
10
-3.062119428433936
20
36.57014547533341
30
-1.5465141906422962e-12
 70
     32
  0
VERTEX
  8
MY3DLAYER
10
-2.978708630019103
20
36.590408521686285
30
-1.5465141906422962e-12
 70
     32
  0
VERTEX
  8
MY3DLAYER
10
-2.8942147894807624
20
36.60553278202459
30
-1.5465141906422962e-12
 70
     32
  0
VERTEX
  8
MY3DLAYER
10
-2.8089541885520664
20
36.61546164243136
30
-1.5465141906422962e-12
 70
     32
  0
VERTEX
  8
MY3DLAYER
10
-2.7232459791434938
20
36.62015793668054
30
-1.5465141906422962e-12
 70
     32
  0
VERTEX
  8
MY3DLAYER
10
-2.6374109886768213
20
36.61960408535954
30
-1.5465141906422962e-12
 70
     32
  0
VERTEX
  8
MY3DLAYER
10
-2.551770519147285
20
36.6138021616734
30
-1.5465141906422962e-12
 70
     32
  0
VERTEX
  8
MY3DLAYER
10
-2.466645144409237
20
36.602773883684236
30
-1.5465141906422962e-12
 70
     32
  0
VERTEX
  8
MY3DLAYER
10
-2.3823535101874462
20
36.58656053301513
30
-1.5465141906422962e-12
 70
     32
  0
VERTEX
  8
MY3DLAYER
10
-2.2992111413058804
20
36.56522280032255
30
-1.5465141906422962e-12
 70
     32
  0
VERTEX
  8
MY3DLAYER
10
-2.217529260598766
20
36.538840558115936
30
-1.5465141906422962e-12
 70
     32
  0
VERTEX
  8
MY3DLAYER
10
-2.1376136239251458
20
36.507512561774824
30
-1.5465141906422962e-12
 70
     32
  0
VERTEX
  8
MY3DLAYER
10
-2.0597633756476306
20
36.471356079882526
30
-1.5465141906422962e-12
 70
     32
  0
VERTEX
  8
MY3DLAYER
10
-1.9842699288596988
20
36.43050645526029
30
-1.5465141906422962e-12
 70
     32
  0
VERTEX
  8
MY3DLAYER
10
-1.9114158745530663
20
36.38511659834505
30
-1.5465141906422962e-12
 70
     32
  0
VERTEX
  8
MY3DLAYER
10
-1.841473923808406
20
36.3353564148071
30
-1.5465141906422962e-12
 70
     32
  0
VERTEX
  8
MY3DLAYER
10
-1.7747058869690493
20
36.28141216955038
30
-1.5465141906422962e-12
 70
     32
  0
VERTEX
  8
MY3DLAYER
10
-1.7113616936189304
20
36.223485789475994
30
-1.5465141906422962e-12
 70
     32
  0
VERTEX
  8
MY3DLAYER
10
-1.6516784570331684
20
36.16179410761898
30
-1.5465141906422962e-12
 70
     32
  0
VERTEX
  8
MY3DLAYER
10
-1.5958795866033506
20
36.09656805148759
30
-1.5465141906422962e-12
 70
     32
  0
VERTEX
  8
MY3DLAYER
10
-1.5846427852641782
20
36.08352920059717
30
-1.5465141906422962e-12
 70
     32
  0
VERTEX
  8
MY3DLAYER
10
-1.5224188004109076
20
36.001386929690945
30
-1.5465141906422962e-12
 70
     32
  0
VERTEX
  8
MY3DLAYER
10
-1.4652302582899086
20
35.915662676350784
30
-1.5465141906422962e-12
 70
     32
  0
VERTEX
  8
MY3DLAYER
10
-1.413282807397838
20
35.82666470274201
30
-1.5465141906422962e-12
 70
     32
  0
VERTEX
  8
MY3DLAYER
10
-1.3667632494048179
20
35.7347130432421
30
-1.5465141906422962e-12
 70
     32
  0
VERTEX
  8
MY3DLAYER
10
-1.325838867420562
20
35.64013835360551
30
-1.5465141906422962e-12
 70
     32
  0
VERTEX
  8
MY3DLAYER
10
-1.2906568244486851
20
35.54328072193419
30
-1.5465141906422962e-12
 70
     32
  0
VERTEX
  8
MY3DLAYER
10
-1.2613436341924233
20
35.44448844572975
30
-1.5465141906422962e-12
 70
     32
  0
VERTEX
  8
MY3DLAYER
10
-1.2380047061146593
20
35.3441167794248
30
-1.5465141906422962e-12
 70
     32
  0
VERTEX
  8
MY3DLAYER
10
-1.2207239663882632
20
35.242526656897255
30
-1.5465141906422962e-12
 70
     32
  0
VERTEX
  8
MY3DLAYER
10
-1.2095635560997868
20
35.14008339356167
30
-1.5465141906422962e-12
 70
     32
  0
VERTEX
  8
MY3DLAYER
10
-1.2045636077917425
20
35.03715537270452
30
-1.5465141906422962e-12
 70
     32
  0
VERTEX
  8
MY3DLAYER
10
-1.1970556815899258
20
34.960027825883905
30
-1.5465141906422962e-12
 70
     32
  0
VERTEX
  8
MY3DLAYER
10
-1.1959572630602797
20
34.88254349900972
30
-1.5465141906422962e-12
 70
     32
  0
VERTEX
  8
MY3DLAYER
10
-1.2012758900230602
20
34.80523412285365
30
-1.5465141906422962e-12
 70
     32
  0
VERTEX
  8
MY3DLAYER
10
-1.209672967369863
20
34.75563308344819
30
-1.5465141906422962e-12
 70
     32
  0
VERTEX
  8
MY3DLAYER
10
-1.2181290924628032
20
34.710826556774855
30
-1.5465141906422962e-12
 70
     32
  0
VERTEX
  8
MY3DLAYER
10
-1.2301699014381164
20
34.66684758676264
30
-1.5465141906422962e-12
 70
     32
  0
VERTEX
  8
MY3DLAYER
10
-1.2457170105607125
20
34.623982469452116
30
-1.5465141906422962e-12
 70
     32
  0
VERTEX
  8
MY3DLAYER
10
-1.264669210643949
20
34.58251024988141
30
-1.5465141906422962e-12
 70
     32
  0
VERTEX
  8
MY3DLAYER
10
-1.286903125905219
20
34.54270090554782
30
-1.5465141906422962e-12
 70
     32
  0
VERTEX
  8
MY3DLAYER
10
-1.3122740171224712
20
34.504813588897555
30
-1.5465141906422962e-12
 70
     32
  0
VERTEX
  8
MY3DLAYER
10
-1.340616723863367
20
34.46909494028488
30
-1.5465141906422962e-12
 70
     32
  0
VERTEX
  8
MY3DLAYER
10
-1.3717467396531822
20
34.43577748238304
30
-1.5465141906422962e-12
 70
     32
  0
VERTEX
  8
MY3DLAYER
10
-1.4054614130823646
20
34.405078106498834
30
-1.5465141906422962e-12
 70
     32
  0
VERTEX
  8
MY3DLAYER
10
-1.4415412670347107
20
34.37719666064514
30
-1.5465141906422962e-12
 70
     32
  0
VERTEX
  8
MY3DLAYER
10
-1.4797514274481756
20
34.35231464856226
30
-1.5465141906422962e-12
 70
     32
  0
VERTEX
  8
MY3DLAYER
10
-1.5198431523073683
20
34.330594048157806
30
-1.5465141906422962e-12
 70
     32
  0
VERTEX
  8
MY3DLAYER
10
-4.130554368902472
20
33.26475361155304
30
-1.5465141906422962e-12
 70
     32
  0
VERTEX
  8
MY3DLAYER
10
-5.7644126366190225
20
32.989163060372036
30
-1.5465141906422962e-12
 70
     32
  0
VERTEX
  8
MY3DLAYER
10
-5.764412636623203
20
36.052421830457256
30
-1.5465141906422962e-12
 70
     32
  0
VERTEX
  8
MY3DLAYER
10
-5.291971691741314
20
36.05242183045723
30
-1.5465141906422962e-12
 70
     32
  0
VERTEX
  8
MY3DLAYER
10
-5.265361200124162
20
36.051242641344764
30
-1.5465141906422962e-12
 70
     32
  0
VERTEX
  8
MY3DLAYER
10
-5.238959312229601
20
36.04771431785158
30
-1.5465141906422962e-12
 70
     32
  0
VERTEX
  8
MY3DLAYER
10
-5.212972996503667
20
36.04186451904634
30
-1.5465141906422962e-12
 70
     32
  0
VERTEX
  8
MY3DLAYER
10
-5.187605963658479
20
36.03373910239854
30
-1.5465141906422962e-12
 70
     32
  0
VERTEX
  8
MY3DLAYER
10
-5.163057069752705
20
36.02340176429472
30
-1.5465141906422962e-12
 70
     32
  0
VERTEX
  8
MY3DLAYER
10
-5.139518757328492
20
36.01093354071277
30
-1.5465141906422962e-12
 70
     32
  0
VERTEX
  8
MY3DLAYER
10
-5.117175546824832
20
35.99643217196845
30
-1.5465141906422962e-12
 70
     32
  0
VERTEX
  8
MY3DLAYER
10
-5.096202590093595
20
35.98001133651409
30
-1.5465141906422962e-12
 70
     32
  0
VERTEX
  8
MY3DLAYER
10
-5.076764297357292
20
35.961799759795774
30
-1.5465141906422962e-12
 70
     32
  0
VERTEX
  8
MY3DLAYER
10
-5.059013048372137
20
35.94194020515483
30
-1.5465141906422962e-12
 70
     32
  0
VERTEX
  8
MY3DLAYER
10
-5.0430879978998195
20
35.920588354684114
30
-1.5465141906422962e-12
 70
     32
  0
VERTEX
  8
MY3DLAYER
10
-5.029113984851943
20
35.89791158881225
30
-1.5465141906422962e-12
 70
     32
  0
VERTEX
  8
MY3DLAYER
10
-4.986019121484311
20
35.82569944668681
30
-1.5465141906422962e-12
 70
     32
  0
VERTEX
  8
MY3DLAYER
10
-4.936639477651373
20
35.7576302797024
30
-1.5465141906422962e-12
 70
     32
  0
VERTEX
  8
MY3DLAYER
10
-4.8813707093257195
20
35.69424949423247
30
-1.5465141906422962e-12
 70
     32
  0
VERTEX
  8
MY3DLAYER
10
-4.820655659277922
20
35.63606493084396
30
-1.5465141906422962e-12
 70
     32
  0
VERTEX
  8
MY3DLAYER
10
-4.7549808087847225
20
35.58354279520844
30
-1.5465141906422962e-12
 70
     32
  0
VERTEX
  8
MY3DLAYER
10
-4.684872379682272
20
35.5371039226144
30
-1.5465141906422962e-12
 70
     32
  0
VERTEX
  8
MY3DLAYER
10
-4.610892117996853
20
35.49712040601098
30
-1.5465141906422962e-12
 70
     32
  0
VERTEX
  8
MY3DLAYER
10
-4.533632792936921
20
35.46391261460138
30
-1.5465141906422962e-12
 70
     32
  0
VERTEX
  8
MY3DLAYER
10
-4.453713447310909
20
35.43774662687437
30
-1.5465141906422962e-12
 70
     32
  0
VERTEX
  8
MY3DLAYER
10
-4.371774437426954
20
35.41883209864194
30
-1.5465141906422962e-12
 70
     32
  0
VERTEX
  8
MY3DLAYER
10
-4.28847230221751
20
35.40732058316535
30
-1.5465141906422962e-12
 70
     32
  0
VERTEX
  8
MY3DLAYER
10
-4.2044745027002515
20
35.40330431682985
30
-1.5465141906422962e-12
 70
     32
  0
VERTEX
  8
MY3DLAYER
10
-4.120454073925306
20
35.40681548009768
30
-1.5465141906422962e-12
 70
     32
  0
VERTEX
  8
MY3DLAYER
10
-4.078769153092882
20
35.41232070987936
30
-1.5465141906422962e-12
 70
     32
  0
SEQEND
  0
POLYLINE
 8
Component#47
 66
     1
70
    8
 10
0.0
 20
 0.0
 30
0.0
  0
VERTEX
  8
MY3DLAYER
10
-2.5887206402728586
20
34.45886032725544
30
-1.5465141906422962e-12
 70
     32
  0
VERTEX
  8
MY3DLAYER
10
-2.5644126385194115
20
34.4689290312559
30
-1.5465141906422962e-12
 70
     32
  0
VERTEX
  8
MY3DLAYER
10
-2.5435388841950974
20
34.484946026289386
30
-1.5465141906422962e-12
 70
     32
  0
VERTEX
  8
MY3DLAYER
10
-2.5275218891616067
20
34.50581978061369
30
-1.5465141906422962e-12
 70
     32
  0
VERTEX
  8
MY3DLAYER
10
-2.517453185161138
20
34.530127782367146
30
-1.5465141906422962e-12
 70
     32
  0
VERTEX
  8
MY3DLAYER
10
-2.5140189377320032
20
34.5562134814011
30
-1.5465141906422962e-12
 70
     32
  0
VERTEX
  8
MY3DLAYER
10
-2.517453185161135
20
34.58229918043505
30
-1.5465141906422962e-12
 70
     32
  0
VERTEX
  8
MY3DLAYER
10
-2.5275218891616005
20
34.6066071821885
30
-1.5465141906422962e-12
 70
     32
  0
VERTEX
  8
MY3DLAYER
10
-2.5435388841950886
20
34.62748093651282
30
-1.5465141906422962e-12
 70
     32
  0
VERTEX
  8
MY3DLAYER
10
-2.564412638519401
20
34.64349793154631
30
-1.5465141906422962e-12
 70
     32
  0
VERTEX
  8
MY3DLAYER
10
-2.5887206402728467
20
34.653566635546774
30
-1.5465141906422962e-12
 70
     32
  0
VERTEX
  8
MY3DLAYER
10
-2.614806339306803
20
34.65700088297591
30
-1.5465141906422962e-12
 70
     32
  0
VERTEX
  8
MY3DLAYER
10
-2.640892038340759
20
34.653566635546774
30
-1.5465141906422962e-12
 70
     32
  0
VERTEX
  8
MY3DLAYER
10
-2.6652000400942066
20
34.64349793154631
30
-1.5465141906422962e-12
 70
     32
  0
VERTEX
  8
MY3DLAYER
10
-2.6860737944185207
20
34.627480936512825
30
-1.5465141906422962e-12
 70
     32
  0
VERTEX
  8
MY3DLAYER
10
-2.702090789452007
20
34.60660718218851
30
-1.5465141906422962e-12
 70
     32
  0
VERTEX
  8
MY3DLAYER
10
-2.712159493452476
20
34.582299180435065
30
-1.5465141906422962e-12
 70
     32
  0
VERTEX
  8
MY3DLAYER
10
-2.7155937408816113
20
34.55621348140111
30
-1.5465141906422962e-12
 70
     32
  0
VERTEX
  8
MY3DLAYER
10
-2.712159493452479
20
34.53012778236715
30
-1.5465141906422962e-12
 70
     32
  0
VERTEX
  8
MY3DLAYER
10
-2.702090789452013
20
34.505819780613706
30
-1.5465141906422962e-12
 70
     32
  0
VERTEX
  8
MY3DLAYER
10
-2.6860737944185296
20
34.48494602628939
30
-1.5465141906422962e-12
 70
     32
  0
VERTEX
  8
MY3DLAYER
10
-2.6652000400942173
20
34.468929031255904
30
-1.5465141906422962e-12
 70
     32
  0
VERTEX
  8
MY3DLAYER
10
-2.640892038340771
20
34.45886032725544
30
-1.5465141906422962e-12
 70
     32
  0
VERTEX
  8
MY3DLAYER
10
-2.6148063393068153
20
34.4554260798263
30
-1.5465141906422962e-12
 70
     32
  0
VERTEX
  8
MY3DLAYER
10
-2.5887206402728586
20
34.45886032725544
30
-1.5465141906422962e-12
 70
     32
  0
SEQEND
  0
POLYLINE
 8
Component#47
 66
     1
70
    8
 10
0.0
 20
 0.0
 30
0.0
  0
VERTEX
  8
MY3DLAYER
10
-5.261145907562303
20
33.580622930220144
30
-1.5465141906422962e-12
 70
     32
  0
VERTEX
  8
MY3DLAYER
10
-5.245128912528815
20
33.559749175895824
30
-1.5465141906422962e-12
 70
     32
  0
VERTEX
  8
MY3DLAYER
10
-5.224255158204503
20
33.543732180862335
30
-1.5465141906422962e-12
 70
     32
  0
VERTEX
  8
MY3DLAYER
10
-5.199947156451061
20
33.53366347686187
30
-1.5465141906422962e-12
 70
     32
  0
VERTEX
  8
MY3DLAYER
10
-5.173861457417107
20
33.530229229432734
30
-1.5465141906422962e-12
 70
     32
  0
VERTEX
  8
MY3DLAYER
10
-5.147775758383151
20
33.53366347686187
30
-1.5465141906422962e-12
 70
     32
  0
VERTEX
  8
MY3DLAYER
10
-5.123467756629704
20
33.54373218086233
30
-1.5465141906422962e-12
 70
     32
  0
VERTEX
  8
MY3DLAYER
10
-5.1025940023053895
20
33.55974917589582
30
-1.5465141906422962e-12
 70
     32
  0
VERTEX
  8
MY3DLAYER
10
-5.0865770072719005
20
33.58062293022013
30
-1.5465141906422962e-12
 70
     32
  0
VERTEX
  8
MY3DLAYER
10
-5.0765083032714315
20
33.60493093197358
30
-1.5465141906422962e-12
 70
     32
  0
VERTEX
  8
MY3DLAYER
10
-5.073074055842296
20
33.63101663100753
30
-1.5465141906422962e-12
 70
     32
  0
VERTEX
  8
MY3DLAYER
10
-5.076508303271428
20
33.65710233004149
30
-1.5465141906422962e-12
 70
     32
  0
VERTEX
  8
MY3DLAYER
10
-5.086577007271893
20
33.681410331794936
30
-1.5465141906422962e-12
 70
     32
  0
VERTEX
  8
MY3DLAYER
10
-5.1025940023053815
20
33.70228408611925
30
-1.5465141906422962e-12
 70
     32
  0
VERTEX
  8
MY3DLAYER
10
-5.123467756629694
20
33.71830108115274
30
-1.5465141906422962e-12
 70
     32
  0
VERTEX
  8
MY3DLAYER
10
-5.14777575838314
20
33.728369785153205
30
-1.5465141906422962e-12
 70
     32
  0
VERTEX
  8
MY3DLAYER
10
-5.173861457417096
20
33.73180403258234
30
-1.5465141906422962e-12
 70
     32
  0
VERTEX
  8
MY3DLAYER
10
-5.199947156451045
20
33.728369785153205
30
-1.5465141906422962e-12
 70
     32
  0
VERTEX
  8
MY3DLAYER
10
-5.2242551582044925
20
33.718301081152745
30
-1.5465141906422962e-12
 70
     32
  0
VERTEX
  8
MY3DLAYER
10
-5.2451289125288065
20
33.702284086119256
30
-1.5465141906422962e-12
 70
     32
  0
VERTEX
  8
MY3DLAYER
10
-5.261145907562296
20
33.68141033179494
30
-1.5465141906422962e-12
 70
     32
  0
VERTEX
  8
MY3DLAYER
10
-5.271214611562765
20
33.657102330041496
30
-1.5465141906422962e-12
 70
     32
  0
VERTEX
  8
MY3DLAYER
10
-5.274648858991901
20
33.63101663100755
30
-1.5465141906422962e-12
 70
     32
  0
VERTEX
  8
MY3DLAYER
10
-5.271214611562769
20
33.604930931973584
30
-1.5465141906422962e-12
 70
     32
  0
VERTEX
  8
MY3DLAYER
10
-5.261145907562303
20
33.580622930220144
30
-1.5465141906422962e-12
 70
     32
  0
SEQEND
  0
POLYLINE
 8
Component#47
 66
     1
70
    8
 10
0.0
 20
 0.0
 30
0.0
  0
VERTEX
  8
MY3DLAYER
10
-5.274648858991793
20
35.40254891447213
30
-1.5465141906422962e-12
 70
     32
  0
VERTEX
  8
MY3DLAYER
10
-5.2712146115626615
20
35.376463215438164
30
-1.5465141906422962e-12
 70
     32
  0
VERTEX
  8
MY3DLAYER
10
-5.261145907562199
20
35.352155213684725
30
-1.5465141906422962e-12
 70
     32
  0
VERTEX
  8
MY3DLAYER
10
-5.245128912528708
20
35.331281459360405
30
-1.5465141906422962e-12
 70
     32
  0
VERTEX
  8
MY3DLAYER
10
-5.224255158204396
20
35.315264464326916
30
-1.5465141906422962e-12
 70
     32
  0
VERTEX
  8
MY3DLAYER
10
-5.199947156450953
20
35.30519576032645
30
-1.5465141906422962e-12
 70
     32
  0
VERTEX
  8
MY3DLAYER
10
-5.173861457417001
20
35.301761512897315
30
-1.5465141906422962e-12
 70
     32
  0
VERTEX
  8
MY3DLAYER
10
-5.147775758383045
20
35.30519576032645
30
-1.5465141906422962e-12
 70
     32
  0
VERTEX
  8
MY3DLAYER
10
-5.123467756629597
20
35.31526446432691
30
-1.5465141906422962e-12
 70
     32
  0
VERTEX
  8
MY3DLAYER
10
-5.102594002305283
20
35.3312814593604
30
-1.5465141906422962e-12
 70
     32
  0
VERTEX
  8
MY3DLAYER
10
-5.086577007271792
20
35.35215521368471
30
-1.5465141906422962e-12
 70
     32
  0
VERTEX
  8
MY3DLAYER
10
-5.076508303271324
20
35.37646321543816
30
-1.5465141906422962e-12
 70
     32
  0
VERTEX
  8
MY3DLAYER
10
-5.073074055842189
20
35.40254891447211
30
-1.5465141906422962e-12
 70
     32
  0
VERTEX
  8
MY3DLAYER
10
-5.076508303271321
20
35.42863461350607
30
-1.5465141906422962e-12
 70
     32
  0
VERTEX
  8
MY3DLAYER
10
-5.086577007271787
20
35.452942615259516
30
-1.5465141906422962e-12
 70
     32
  0
VERTEX
  8
MY3DLAYER
10
-5.102594002305274
20
35.47381636958383
30
-1.5465141906422962e-12
 70
     32
  0
VERTEX
  8
MY3DLAYER
10
-5.123467756629586
20
35.48983336461732
30
-1.5465141906422962e-12
 70
     32
  0
VERTEX
  8
MY3DLAYER
10
-5.147775758383032
20
35.499902068617786
30
-1.5465141906422962e-12
 70
     32
  0
VERTEX
  8
MY3DLAYER
10
-5.173861457416988
20
35.50333631604692
30
-1.5465141906422962e-12
 70
     32
  0
VERTEX
  8
MY3DLAYER
10
-5.199947156450941
20
35.499902068617786
30
-1.5465141906422962e-12
 70
     32
  0
VERTEX
  8
MY3DLAYER
10
-5.224255158204389
20
35.489833364617326
30
-1.5465141906422962e-12
 70
     32
  0
VERTEX
  8
MY3DLAYER
10
-5.245128912528703
20
35.47381636958384
30
-1.5465141906422962e-12
 70
     32
  0
VERTEX
  8
MY3DLAYER
10
-5.261145907562193
20
35.45294261525952
30
-1.5465141906422962e-12
 70
     32
  0
VERTEX
  8
MY3DLAYER
10
-5.271214611562658
20
35.42863461350608
30
-1.5465141906422962e-12
 70
     32
  0
VERTEX
  8
MY3DLAYER
10
-5.274648858991793
20
35.40254891447213
30
-1.5465141906422962e-12
 70
     32
  0
SEQEND
  0
POLYLINE
 8
Component#47
 66
     1
70
    8
 10
0.0
 20
 0.0
 30
0.0
  0
VERTEX
  8
MY3DLAYER
10
-3.1931451834076263
20
35.5920478656467
30
-1.5465141906422962e-12
 70
     32
  0
VERTEX
  8
MY3DLAYER
10
-3.214018937731935
20
35.608064860680194
30
-1.5465141906422962e-12
 70
     32
  0
VERTEX
  8
MY3DLAYER
10
-3.238326939485385
20
35.61813356468066
30
-1.5465141906422962e-12
 70
     32
  0
VERTEX
  8
MY3DLAYER
10
-3.264412638519337
20
35.621567812109795
30
-1.5465141906422962e-12
 70
     32
  0
VERTEX
  8
MY3DLAYER
10
-3.2904983375532937
20
35.61813356468066
30
-1.5465141906422962e-12
 70
     32
  0
VERTEX
  8
MY3DLAYER
10
-3.314806339306741
20
35.608064860680194
30
-1.5465141906422962e-12
 70
     32
  0
VERTEX
  8
MY3DLAYER
10
-3.335680093631055
20
35.59204786564671
30
-1.5465141906422962e-12
 70
     32
  0
VERTEX
  8
MY3DLAYER
10
-3.351697088664545
20
35.57117411132239
30
-1.5465141906422962e-12
 70
     32
  0
VERTEX
  8
MY3DLAYER
10
-3.3617657926650137
20
35.54686610956895
30
-1.5465141906422962e-12
 70
     32
  0
VERTEX
  8
MY3DLAYER
10
-3.365200040094149
20
35.520780410535
30
-1.5465141906422962e-12
 70
     32
  0
VERTEX
  8
MY3DLAYER
10
-3.3617657926650173
20
35.49469471150104
30
-1.5465141906422962e-12
 70
     32
  0
VERTEX
  8
MY3DLAYER
10
-3.3516970886645514
20
35.470386709747594
30
-1.5465141906422962e-12
 70
     32
  0
VERTEX
  8
MY3DLAYER
10
-3.3356800936310638
20
35.44951295542328
30
-1.5465141906422962e-12
 70
     32
  0
VERTEX
  8
MY3DLAYER
10
-3.3148063393067515
20
35.433495960389784
30
-1.5465141906422962e-12
 70
     32
  0
VERTEX
  8
MY3DLAYER
10
-3.2904983375533052
20
35.423427256389324
30
-1.5465141906422962e-12
 70
     32
  0
VERTEX
  8
MY3DLAYER
10
-3.2644126385193495
20
35.41999300896019
30
-1.5465141906422962e-12
 70
     32
  0
VERTEX
  8
MY3DLAYER
10
-3.2383269394853964
20
35.423427256389324
30
-1.5465141906422962e-12
 70
     32
  0
VERTEX
  8
MY3DLAYER
10
-3.2140189377319492
20
35.433495960389784
30
-1.5465141906422962e-12
 70
     32
  0
VERTEX
  8
MY3DLAYER
10
-3.193145183407635
20
35.44951295542327
30
-1.5465141906422962e-12
 70
     32
  0
VERTEX
  8
MY3DLAYER
10
-3.177128188374145
20
35.47038670974759
30
-1.5465141906422962e-12
 70
     32
  0
VERTEX
  8
MY3DLAYER
10
-3.16705948437368
20
35.494694711501026
30
-1.5465141906422962e-12
 70
     32
  0
VERTEX
  8
MY3DLAYER
10
-3.1636252369445446
20
35.52078041053498
30
-1.5465141906422962e-12
 70
     32
  0
VERTEX
  8
MY3DLAYER
10
-3.1670594843736763
20
35.54686610956894
30
-1.5465141906422962e-12
 70
     32
  0
VERTEX
  8
MY3DLAYER
10
-3.1771281883741422
20
35.571174111322385
30
-1.5465141906422962e-12
 70
     32
  0
VERTEX
  8
MY3DLAYER
10
-3.1931451834076263
20
35.5920478656467
30
-1.5465141906422962e-12
 70
     32
  0
SEQEND
  0
POLYLINE
 8
Component#47
 66
     1
70
    8
 10
0.0
 20
 0.0
 30
0.0
  0
VERTEX
  8
MY3DLAYER
10
-1.6044686717688847
20
35.00789734420812
30
-1.5465141906422962e-12
 70
     32
  0
VERTEX
  8
MY3DLAYER
10
-1.6305543708028407
20
35.01133159163725
30
-1.5465141906422962e-12
 70
     32
  0
VERTEX
  8
MY3DLAYER
10
-1.6566400698367971
20
35.007897344208125
30
-1.5465141906422962e-12
 70
     32
  0
VERTEX
  8
MY3DLAYER
10
-1.6809480715902443
20
34.99782864020766
30
-1.5465141906422962e-12
 70
     32
  0
VERTEX
  8
MY3DLAYER
10
-1.7018218259145586
20
34.98181164517417
30
-1.5465141906422962e-12
 70
     32
  0
VERTEX
  8
MY3DLAYER
10
-1.7178388209480486
20
34.960937890849856
30
-1.5465141906422962e-12
 70
     32
  0
VERTEX
  8
MY3DLAYER
10
-1.7279075249485176
20
34.93662988909641
30
-1.5465141906422962e-12
 70
     32
  0
VERTEX
  8
MY3DLAYER
10
-1.7313417723776525
20
34.91054419006246
30
-1.5465141906422962e-12
 70
     32
  0
VERTEX
  8
MY3DLAYER
10
-1.7279075249485172
20
34.884458491028504
30
-1.5465141906422962e-12
 70
     32
  0
VERTEX
  8
MY3DLAYER
10
-1.7178388209480513
20
34.86015048927505
30
-1.5465141906422962e-12
 70
     32
  0
VERTEX
  8
MY3DLAYER
10
-1.7018218259145672
20
34.839276734950744
30
-1.5465141906422962e-12
 70
     32
  0
VERTEX
  8
MY3DLAYER
10
-1.680948071590255
20
34.82325973991725
30
-1.5465141906422962e-12
 70
     32
  0
VERTEX
  8
MY3DLAYER
10
-1.656640069836809
20
34.81319103591679
30
-1.5465141906422962e-12
 70
     32
  0
VERTEX
  8
MY3DLAYER
10
-1.630554370802853
20
34.80975678848765
30
-1.5465141906422962e-12
 70
     32
  0
VERTEX
  8
MY3DLAYER
10
-1.6044686717688965
20
34.81319103591678
30
-1.5465141906422962e-12
 70
     32
  0
VERTEX
  8
MY3DLAYER
10
-1.5801606700154491
20
34.82325973991725
30
-1.5465141906422962e-12
 70
     32
  0
VERTEX
  8
MY3DLAYER
10
-1.559286915691135
20
34.83927673495073
30
-1.5465141906422962e-12
 70
     32
  0
VERTEX
  8
MY3DLAYER
10
-1.5432699206576448
20
34.86015048927504
30
-1.5465141906422962e-12
 70
     32
  0
VERTEX
  8
MY3DLAYER
10
-1.5332012166571762
20
34.88445849102849
30
-1.5465141906422962e-12
 70
     32
  0
VERTEX
  8
MY3DLAYER
10
-1.5297669692280444
20
34.910544190062446
30
-1.5465141906422962e-12
 70
     32
  0
VERTEX
  8
MY3DLAYER
10
-1.5332012166571765
20
34.936629889096395
30
-1.5465141906422962e-12
 70
     32
  0
VERTEX
  8
MY3DLAYER
10
-1.5432699206576423
20
34.96093789084985
30
-1.5465141906422962e-12
 70
     32
  0
VERTEX
  8
MY3DLAYER
10
-1.5592869156911264
20
34.98181164517416
30
-1.5465141906422962e-12
 70
     32
  0
VERTEX
  8
MY3DLAYER
10
-1.5801606700154385
20
34.99782864020765
30
-1.5465141906422962e-12
 70
     32
  0
VERTEX
  8
MY3DLAYER
10
-1.6044686717688847
20
35.00789734420812
30
-1.5465141906422962e-12
 70
     32
  0
SEQEND
  0
POLYLINE
 8
Component#49
 66
     1
70
    8
 10
0.0
 20
 0.0
 30
0.0
  0
VERTEX
  8
MY3DLAYER
10
-3.8470717624443065
20
32.08538954231093
30
7.748813211408672e-14
 70
     32
  0
VERTEX
  8
MY3DLAYER
10
-3.8505060098734383
20
32.111475241344884
30
7.748813211408672e-14
 70
     32
  0
VERTEX
  8
MY3DLAYER
10
-3.8470717624443047
20
32.13756094037883
30
7.748813211408672e-14
 70
     32
  0
VERTEX
  8
MY3DLAYER
10
-3.83700305844384
20
32.16186894213229
30
7.748813211408672e-14
 70
     32
  0
VERTEX
  8
MY3DLAYER
10
-3.82098606341035
20
32.1827426964566
30
7.748813211408672e-14
 70
     32
  0
VERTEX
  8
MY3DLAYER
10
-3.8001123090860376
20
32.19875969149008
30
7.748813211408672e-14
 70
     32
  0
VERTEX
  8
MY3DLAYER
10
-3.775804307332591
20
32.208828395490556
30
7.748813211408672e-14
 70
     32
  0
VERTEX
  8
MY3DLAYER
10
-3.7497186082986347
20
32.21226264291968
30
7.748813211408672e-14
 70
     32
  0
VERTEX
  8
MY3DLAYER
10
-3.7236329092646803
20
32.208828395490556
30
7.748813211408672e-14
 70
     32
  0
VERTEX
  8
MY3DLAYER
10
-3.6993249075112344
20
32.19875969149009
30
7.748813211408672e-14
 70
     32
  0
VERTEX
  8
MY3DLAYER
10
-3.6784511531869213
20
32.1827426964566
30
7.748813211408672e-14
 70
     32
  0
VERTEX
  8
MY3DLAYER
10
-3.6624341581534328
20
32.16186894213229
30
7.748813211408672e-14
 70
     32
  0
VERTEX
  8
MY3DLAYER
10
-3.6523654541529655
20
32.13756094037884
30
7.748813211408672e-14
 70
     32
  0
VERTEX
  8
MY3DLAYER
10
-3.64893120672383
20
32.111475241344884
30
7.748813211408672e-14
 70
     32
  0
VERTEX
  8
MY3DLAYER
10
-3.6523654541529673
20
32.08538954231093
30
7.748813211408672e-14
 70
     32
  0
VERTEX
  8
MY3DLAYER
10
-3.662434158153431
20
32.06108154055748
30
7.748813211408672e-14
 70
     32
  0
VERTEX
  8
MY3DLAYER
10
-3.6784511531869204
20
32.04020778623317
30
7.748813211408672e-14
 70
     32
  0
VERTEX
  8
MY3DLAYER
10
-3.6993249075112344
20
32.02419079119968
30
7.748813211408672e-14
 70
     32
  0
VERTEX
  8
MY3DLAYER
10
-3.723632909264681
20
32.01412208719921
30
7.748813211408672e-14
 70
     32
  0
VERTEX
  8
MY3DLAYER
10
-3.7497186082986347
20
32.01068783977008
30
7.748813211408672e-14
 70
     32
  0
VERTEX
  8
MY3DLAYER
10
-3.775804307332591
20
32.01412208719921
30
7.748813211408672e-14
 70
     32
  0
VERTEX
  8
MY3DLAYER
10
-3.8001123090860367
20
32.02419079119968
30
7.748813211408672e-14
 70
     32
  0
VERTEX
  8
MY3DLAYER
10
-3.82098606341035
20
32.04020778623317
30
7.748813211408672e-14
 70
     32
  0
VERTEX
  8
MY3DLAYER
10
-3.8370030584438384
20
32.06108154055748
30
7.748813211408672e-14
 70
     32
  0
VERTEX
  8
MY3DLAYER
10
-3.8470717624443065
20
32.08538954231093
30
7.748813211408672e-14
 70
     32
  0
SEQEND
  0
POLYLINE
 8
Component#49
 66
     1
70
    8
 10
0.0
 20
 0.0
 30
0.0
  0
VERTEX
  8
MY3DLAYER
10
-4.999842437788601
20
30.535600049033867
30
7.748813211408672e-14
 70
     32
  0
VERTEX
  8
MY3DLAYER
10
-4.973756738754647
20
30.539034296462997
30
7.748813211408672e-14
 70
     32
  0
VERTEX
  8
MY3DLAYER
10
-4.947671039720692
20
30.535600049033867
30
7.748813211408672e-14
 70
     32
  0
VERTEX
  8
MY3DLAYER
10
-4.923363037967246
20
30.5255313450334
30
7.748813211408672e-14
 70
     32
  0
VERTEX
  8
MY3DLAYER
10
-4.9024892836429315
20
30.50951434999991
30
7.748813211408672e-14
 70
     32
  0
VERTEX
  8
MY3DLAYER
10
-4.886472288609443
20
30.488640595675598
30
7.748813211408672e-14
 70
     32
  0
VERTEX
  8
MY3DLAYER
10
-4.876403584608979
20
30.464332593922148
30
7.748813211408672e-14
 70
     32
  0
VERTEX
  8
MY3DLAYER
10
-4.8729693371798435
20
30.438246894888195
30
7.748813211408672e-14
 70
     32
  0
VERTEX
  8
MY3DLAYER
10
-4.876403584608979
20
30.41216119585424
30
7.748813211408672e-14
 70
     32
  0
VERTEX
  8
MY3DLAYER
10
-4.886472288609443
20
30.387853194100792
30
7.748813211408672e-14
 70
     32
  0
VERTEX
  8
MY3DLAYER
10
-4.902489283642932
20
30.366979439776483
30
7.748813211408672e-14
 70
     32
  0
VERTEX
  8
MY3DLAYER
10
-4.923363037967248
20
30.35096244474299
30
7.748813211408672e-14
 70
     32
  0
VERTEX
  8
MY3DLAYER
10
-4.947671039720695
20
30.340893740742526
30
7.748813211408672e-14
 70
     32
  0
VERTEX
  8
MY3DLAYER
10
-4.973756738754648
20
30.337459493313393
30
7.748813211408672e-14
 70
     32
  0
VERTEX
  8
MY3DLAYER
10
-4.999842437788604
20
30.340893740742526
30
7.748813211408672e-14
 70
     32
  0
VERTEX
  8
MY3DLAYER
10
-5.0241504395420495
20
30.350962444742994
30
7.748813211408672e-14
 70
     32
  0
VERTEX
  8
MY3DLAYER
10
-5.045024193866361
20
30.366979439776483
30
7.748813211408672e-14
 70
     32
  0
VERTEX
  8
MY3DLAYER
10
-5.06104118889985
20
30.387853194100796
30
7.748813211408672e-14
 70
     32
  0
VERTEX
  8
MY3DLAYER
10
-5.071109892900316
20
30.412161195854242
30
7.748813211408672e-14
 70
     32
  0
VERTEX
  8
MY3DLAYER
10
-5.07454414032945
20
30.4382468948882
30
7.748813211408672e-14
 70
     32
  0
VERTEX
  8
MY3DLAYER
10
-5.071109892900316
20
30.46433259392215
30
7.748813211408672e-14
 70
     32
  0
VERTEX
  8
MY3DLAYER
10
-5.06104118889985
20
30.488640595675598
30
7.748813211408672e-14
 70
     32
  0
VERTEX
  8
MY3DLAYER
10
-5.04502419386636
20
30.50951434999991
30
7.748813211408672e-14
 70
     32
  0
VERTEX
  8
MY3DLAYER
10
-5.024150439542049
20
30.5255313450334
30
7.748813211408672e-14
 70
     32
  0
VERTEX
  8
MY3DLAYER
10
-4.999842437788601
20
30.535600049033867
30
7.748813211408672e-14
 70
     32
  0
SEQEND
  0
POLYLINE
 8
Component#49
 66
     1
70
    8
 10
0.0
 20
 0.0
 30
0.0
  0
VERTEX
  8
MY3DLAYER
10
-4.542722614494668
20
29.86583294836425
30
7.748813211408672e-14
 70
     32
  0
VERTEX
  8
MY3DLAYER
10
-4.585161026401604
20
29.828451381682626
30
7.748813211408672e-14
 70
     32
  0
VERTEX
  8
MY3DLAYER
10
-4.629028417832905
20
29.792757512436374
30
7.748813211408672e-14
 70
     32
  0
VERTEX
  8
MY3DLAYER
10
-4.67425771621905
20
29.7588059160048
30
7.748813211408672e-14
 70
     32
  0
VERTEX
  8
MY3DLAYER
10
-4.720779766655649
20
29.726648503858765
30
7.748813211408672e-14
 70
     32
  0
VERTEX
  8
MY3DLAYER
10
-4.768523437640226
20
29.696334444188842
30
7.748813211408672e-14
 70
     32
  0
VERTEX
  8
MY3DLAYER
10
-5.551598275019259
20
29.220356610149008
30
7.748813211408672e-14
 70
     32
  0
VERTEX
  8
MY3DLAYER
10
-5.587209788367017
20
29.203121062386206
30
7.748813211408672e-14
 70
     32
  0
VERTEX
  8
MY3DLAYER
10
-5.625443722471884
20
29.192951978235406
30
7.748813211408672e-14
 70
     32
  0
VERTEX
  8
MY3DLAYER
10
-5.664912340836842
20
29.190218454143206
30
7.748813211408672e-14
 70
     32
  0
VERTEX
  8
MY3DLAYER
10
-5.704183092941671
20
29.195019705930225
30
7.748813211408672e-14
 70
     32
  0
VERTEX
  8
MY3DLAYER
10
-5.741830610007641
20
29.207181467659883
30
7.748813211408672e-14
 70
     32
  0
VERTEX
  8
MY3DLAYER
10
-5.776488440094143
20
29.226262316783984
30
7.748813211408672e-14
 70
     32
  0
VERTEX
  8
MY3DLAYER
10
-5.806898644753444
20
29.251569695988092
30
7.748813211408672e-14
 70
     32
  0
VERTEX
  8
MY3DLAYER
10
-5.831957457086446
20
29.28218505020882
30
7.748813211408672e-14
 70
     32
  0
VERTEX
  8
MY3DLAYER
10
-5.850755343997466
20
29.31699716645133
30
7.748813211408672e-14
 70
     32
  0
VERTEX
  8
MY3DLAYER
10
-5.862610018550982
20
29.354742506307154
30
7.748813211408672e-14
 70
     32
  0
VERTEX
  8
MY3DLAYER
10
-5.867091204215867
20
29.39405106726578
30
7.748813211408672e-14
 70
     32
  0
VERTEX
  8
MY3DLAYER
10
-5.864036252155612
20
29.433496108240675
30
7.748813211408672e-14
 70
     32
  0
VERTEX
  8
MY3DLAYER
10
-5.717432165928894
20
30.273953482010608
30
7.748813211408672e-14
 70
     32
  0
VERTEX
  8
MY3DLAYER
10
-5.693187632651094
20
30.643853579387915
30
7.748813211408672e-14
 70
     32
  0
VERTEX
  8
MY3DLAYER
10
-5.717432165928895
20
31.013753676765226
30
7.748813211408672e-14
 70
     32
  0
VERTEX
  8
MY3DLAYER
10
-5.789750935076064
20
31.37732468092073
30
7.748813211408672e-14
 70
     32
  0
VERTEX
  8
MY3DLAYER
10
-5.9089065459019405
20
31.728345791172398
30
7.748813211408672e-14
 70
     32
  0
VERTEX
  8
MY3DLAYER
10
-6.07286021286912
20
32.06081093900239
30
7.748813211408672e-14
 70
     32
  0
VERTEX
  8
MY3DLAYER
10
-6.102375745708511
20
32.124517387122864
30
7.748813211408672e-14
 70
     32
  0
VERTEX
  8
MY3DLAYER
10
-6.120045035008152
20
32.192469388024726
30
7.748813211408672e-14
 70
     32
  0
VERTEX
  8
MY3DLAYER
10
-6.125300482477198
20
32.26248408992954
30
7.748813211408672e-14
 70
     32
  0
VERTEX
  8
MY3DLAYER
10
-6.117973265083188
20
32.33231238001444
30
7.748813211408672e-14
 70
     32
  0
VERTEX
  8
MY3DLAYER
10
-6.098298758227978
20
32.3997111336448
30
7.748813211408672e-14
 70
     32
  0
VERTEX
  8
MY3DLAYER
10
-6.066908974681004
20
32.462515271245714
30
7.748813211408672e-14
 70
     32
  0
VERTEX
  8
MY3DLAYER
10
-6.024812262157275
20
32.51870730809805
30
7.748813211408672e-14
 70
     32
  0
VERTEX
  8
MY3DLAYER
10
-5.973360911723693
20
32.566482162880476
30
7.748813211408672e-14
 70
     32
  0
VERTEX
  8
MY3DLAYER
10
-5.914207717563002
20
32.60430514308442
30
7.748813211408672e-14
 70
     32
  0
VERTEX
  8
MY3DLAYER
10
-5.849252883544975
20
32.63096124461129
30
7.748813211408672e-14
 70
     32
  0
VERTEX
  8
MY3DLAYER
10
-5.780582982148292
20
32.64559418187934
30
7.748813211408672e-14
 70
     32
  0
VERTEX
  8
MY3DLAYER
10
-5.7104039265822575
20
32.64773389465906
30
7.748813211408672e-14
 70
     32
  0
VERTEX
  8
MY3DLAYER
10
-3.481946675841783
20
32.647733894659055
30
7.748813211408672e-14
 70
     32
  0
VERTEX
  8
MY3DLAYER
10
-3.4104741562579086
20
32.641385474832596
30
7.748813211408672e-14
 70
     32
  0
VERTEX
  8
MY3DLAYER
10
-3.341239529213582
20
32.62253899219011
30
7.748813211408672e-14
 70
     32
  0
VERTEX
  8
MY3DLAYER
10
-3.27641061607908
20
32.5917845532949
30
7.748813211408672e-14
 70
     32
  0
VERTEX
  8
MY3DLAYER
10
-3.218017289900643
20
32.55008511747402
30
7.748813211408672e-14
 70
     32
  0
VERTEX
  8
MY3DLAYER
10
-3.167887917577544
20
32.49874634537678
30
7.748813211408672e-14
 70
     32
  0
VERTEX
  8
MY3DLAYER
10
-3.1275921114445238
20
32.43937571713309
30
7.748813211408672e-14
 70
     32
  0
VERTEX
  8
MY3DLAYER
10
-3.098391582778103
20
32.373832200172515
30
7.748813211408672e-14
 70
     32
  0
VERTEX
  8
MY3DLAYER
10
-3.081200636063893
20
32.30416804266645
30
7.748813211408672e-14
 70
     32
  0
VERTEX
  8
MY3DLAYER
10
-3.076557540998046
20
32.2325645151125
30
7.748813211408672e-14
 70
     32
  0
VERTEX
  8
MY3DLAYER
10
-3.0846076786006877
20
32.16126361207096
30
7.748813211408672e-14
 70
     32
  0
VERTEX
  8
MY3DLAYER
10
-3.1050989891572867
20
32.092497852556264
30
7.748813211408672e-14
 70
     32
  0
VERTEX
  8
MY3DLAYER
10
-3.1373898645184846
20
32.028420377119346
30
7.748813211408672e-14
 70
     32
  0
VERTEX
  8
MY3DLAYER
10
-4.290816176441414
20
30.169656020015655
30
7.748813211408672e-14
 70
     32
  0
VERTEX
  8
MY3DLAYER
10
-4.321569278924715
20
30.122193961269673
30
7.748813211408672e-14
 70
     32
  0
VERTEX
  8
MY3DLAYER
10
-4.35415438867647
20
30.07597047205454
30
7.748813211408672e-14
 70
     32
  0
VERTEX
  8
MY3DLAYER
10
-4.388521683563024
20
30.031056227377203
30
7.748813211408672e-14
 70
     32
  0
VERTEX
  8
MY3DLAYER
10
-4.424618616516944
20
29.987519900429746
30
7.748813211408672e-14
 70
     32
  0
VERTEX
  8
MY3DLAYER
10
-4.462389995880693
20
29.94542805758918
30
7.748813211408672e-14
 70
     32
  0
VERTEX
  8
MY3DLAYER
10
-4.501778069793819
20
29.904845056638415
30
7.748813211408672e-14
 70
     32
  0
VERTEX
  8
MY3DLAYER
10
-4.542722614494668
20
29.86583294836425
30
7.748813211408672e-14
 70
     32
  0
SEQEND
  0
POLYLINE
 8
Component#49
 66
     1
70
    8
 10
0.0
 20
 0.0
 30
0.0
  0
VERTEX
  8
MY3DLAYER
10
-3.8505060098734383
20
32.111475241344884
30
7.748813211408672e-14
 70
     32
  0
VERTEX
  8
MY3DLAYER
10
-3.8470717624443065
20
32.08538954231093
30
7.748813211408672e-14
 70
     32
  0
VERTEX
  8
MY3DLAYER
10
-3.8370030584438384
20
32.06108154055748
30
7.748813211408672e-14
 70
     32
  0
VERTEX
  8
MY3DLAYER
10
-3.82098606341035
20
32.04020778623317
30
7.748813211408672e-14
 70
     32
  0
VERTEX
  8
MY3DLAYER
10
-3.8001123090860367
20
32.02419079119968
30
7.748813211408672e-14
 70
     32
  0
VERTEX
  8
MY3DLAYER
10
-3.775804307332591
20
32.01412208719921
30
7.748813211408672e-14
 70
     32
  0
VERTEX
  8
MY3DLAYER
10
-3.7497186082986347
20
32.01068783977008
30
7.748813211408672e-14
 70
     32
  0
VERTEX
  8
MY3DLAYER
10
-3.723632909264681
20
32.01412208719921
30
7.748813211408672e-14
 70
     32
  0
VERTEX
  8
MY3DLAYER
10
-3.6993249075112344
20
32.02419079119968
30
7.748813211408672e-14
 70
     32
  0
VERTEX
  8
MY3DLAYER
10
-3.6784511531869204
20
32.04020778623317
30
7.748813211408672e-14
 70
     32
  0
VERTEX
  8
MY3DLAYER
10
-3.662434158153431
20
32.06108154055748
30
7.748813211408672e-14
 70
     32
  0
VERTEX
  8
MY3DLAYER
10
-3.6523654541529673
20
32.08538954231093
30
7.748813211408672e-14
 70
     32
  0
VERTEX
  8
MY3DLAYER
10
-3.64893120672383
20
32.111475241344884
30
7.748813211408672e-14
 70
     32
  0
VERTEX
  8
MY3DLAYER
10
-3.6523654541529655
20
32.13756094037884
30
7.748813211408672e-14
 70
     32
  0
VERTEX
  8
MY3DLAYER
10
-3.6624341581534328
20
32.16186894213229
30
7.748813211408672e-14
 70
     32
  0
VERTEX
  8
MY3DLAYER
10
-3.6784511531869213
20
32.1827426964566
30
7.748813211408672e-14
 70
     32
  0
VERTEX
  8
MY3DLAYER
10
-3.6993249075112344
20
32.19875969149009
30
7.748813211408672e-14
 70
     32
  0
VERTEX
  8
MY3DLAYER
10
-3.7236329092646803
20
32.208828395490556
30
7.748813211408672e-14
 70
     32
  0
VERTEX
  8
MY3DLAYER
10
-3.7497186082986347
20
32.21226264291968
30
7.748813211408672e-14
 70
     32
  0
VERTEX
  8
MY3DLAYER
10
-3.775804307332591
20
32.208828395490556
30
7.748813211408672e-14
 70
     32
  0
VERTEX
  8
MY3DLAYER
10
-3.8001123090860376
20
32.19875969149008
30
7.748813211408672e-14
 70
     32
  0
VERTEX
  8
MY3DLAYER
10
-3.82098606341035
20
32.1827426964566
30
7.748813211408672e-14
 70
     32
  0
VERTEX
  8
MY3DLAYER
10
-3.83700305844384
20
32.16186894213229
30
7.748813211408672e-14
 70
     32
  0
VERTEX
  8
MY3DLAYER
10
-3.8470717624443047
20
32.13756094037883
30
7.748813211408672e-14
 70
     32
  0
VERTEX
  8
MY3DLAYER
10
-3.8505060098734383
20
32.111475241344884
30
7.748813211408672e-14
 70
     32
  0
SEQEND
  0
POLYLINE
 8
Component#49
 66
     1
70
    8
 10
0.0
 20
 0.0
 30
0.0
  0
VERTEX
  8
MY3DLAYER
10
-5.454844331126887
20
32.241797814567406
30
7.748813211408672e-14
 70
     32
  0
VERTEX
  8
MY3DLAYER
10
-5.4708613261603745
20
32.22092406024309
30
7.748813211408672e-14
 70
     32
  0
VERTEX
  8
MY3DLAYER
10
-5.4809300301608435
20
32.196616058489646
30
7.748813211408672e-14
 70
     32
  0
VERTEX
  8
MY3DLAYER
10
-5.484364277589975
20
32.17053035945569
30
7.748813211408672e-14
 70
     32
  0
VERTEX
  8
MY3DLAYER
10
-5.480930030160842
20
32.14444466042174
30
7.748813211408672e-14
 70
     32
  0
VERTEX
  8
MY3DLAYER
10
-5.470861326160377
20
32.12013665866829
30
7.748813211408672e-14
 70
     32
  0
VERTEX
  8
MY3DLAYER
10
-5.454844331126888
20
32.09926290434398
30
7.748813211408672e-14
 70
     32
  0
VERTEX
  8
MY3DLAYER
10
-5.433970576802574
20
32.08324590931049
30
7.748813211408672e-14
 70
     32
  0
VERTEX
  8
MY3DLAYER
10
-5.409662575049128
20
32.073177205310024
30
7.748813211408672e-14
 70
     32
  0
VERTEX
  8
MY3DLAYER
10
-5.383576876015173
20
32.06974295788089
30
7.748813211408672e-14
 70
     32
  0
VERTEX
  8
MY3DLAYER
10
-5.3574911769812195
20
32.07317720531002
30
7.748813211408672e-14
 70
     32
  0
VERTEX
  8
MY3DLAYER
10
-5.333183175227772
20
32.08324590931049
30
7.748813211408672e-14
 70
     32
  0
VERTEX
  8
MY3DLAYER
10
-5.312309420903458
20
32.09926290434397
30
7.748813211408672e-14
 70
     32
  0
VERTEX
  8
MY3DLAYER
10
-5.296292425869969
20
32.120136658668294
30
7.748813211408672e-14
 70
     32
  0
VERTEX
  8
MY3DLAYER
10
-5.2862237218695025
20
32.14444466042174
30
7.748813211408672e-14
 70
     32
  0
VERTEX
  8
MY3DLAYER
10
-5.282789474440367
20
32.17053035945569
30
7.748813211408672e-14
 70
     32
  0
VERTEX
  8
MY3DLAYER
10
-5.286223721869504
20
32.196616058489646
30
7.748813211408672e-14
 70
     32
  0
VERTEX
  8
MY3DLAYER
10
-5.296292425869968
20
32.22092406024309
30
7.748813211408672e-14
 70
     32
  0
VERTEX
  8
MY3DLAYER
10
-5.312309420903459
20
32.241797814567406
30
7.748813211408672e-14
 70
     32
  0
VERTEX
  8
MY3DLAYER
10
-5.333183175227769
20
32.257814809600895
30
7.748813211408672e-14
 70
     32
  0
VERTEX
  8
MY3DLAYER
10
-5.357491176981215
20
32.26788351360136
30
7.748813211408672e-14
 70
     32
  0
VERTEX
  8
MY3DLAYER
10
-5.383576876015172
20
32.271317761030495
30
7.748813211408672e-14
 70
     32
  0
VERTEX
  8
MY3DLAYER
10
-5.409662575049126
20
32.26788351360136
30
7.748813211408672e-14
 70
     32
  0
VERTEX
  8
MY3DLAYER
10
-5.433970576802572
20
32.257814809600895
30
7.748813211408672e-14
 70
     32
  0
VERTEX
  8
MY3DLAYER
10
-5.454844331126887
20
32.241797814567406
30
7.748813211408672e-14
 70
     32
  0
SEQEND
  0
POLYLINE
 8
Component#49
 66
     1
70
    8
 10
0.0
 20
 0.0
 30
0.0
  0
VERTEX
  8
MY3DLAYER
10
-4.973756738754647
20
30.539034296462997
30
7.748813211408672e-14
 70
     32
  0
VERTEX
  8
MY3DLAYER
10
-4.999842437788601
20
30.535600049033867
30
7.748813211408672e-14
 70
     32
  0
VERTEX
  8
MY3DLAYER
10
-5.024150439542049
20
30.5255313450334
30
7.748813211408672e-14
 70
     32
  0
VERTEX
  8
MY3DLAYER
10
-5.04502419386636
20
30.50951434999991
30
7.748813211408672e-14
 70
     32
  0
VERTEX
  8
MY3DLAYER
10
-5.06104118889985
20
30.488640595675598
30
7.748813211408672e-14
 70
     32
  0
VERTEX
  8
MY3DLAYER
10
-5.071109892900316
20
30.46433259392215
30
7.748813211408672e-14
 70
     32
  0
VERTEX
  8
MY3DLAYER
10
-5.07454414032945
20
30.4382468948882
30
7.748813211408672e-14
 70
     32
  0
VERTEX
  8
MY3DLAYER
10
-5.071109892900316
20
30.412161195854242
30
7.748813211408672e-14
 70
     32
  0
VERTEX
  8
MY3DLAYER
10
-5.06104118889985
20
30.387853194100796
30
7.748813211408672e-14
 70
     32
  0
VERTEX
  8
MY3DLAYER
10
-5.045024193866361
20
30.366979439776483
30
7.748813211408672e-14
 70
     32
  0
VERTEX
  8
MY3DLAYER
10
-5.0241504395420495
20
30.350962444742994
30
7.748813211408672e-14
 70
     32
  0
VERTEX
  8
MY3DLAYER
10
-4.999842437788604
20
30.340893740742526
30
7.748813211408672e-14
 70
     32
  0
VERTEX
  8
MY3DLAYER
10
-4.973756738754648
20
30.337459493313393
30
7.748813211408672e-14
 70
     32
  0
VERTEX
  8
MY3DLAYER
10
-4.947671039720695
20
30.340893740742526
30
7.748813211408672e-14
 70
     32
  0
VERTEX
  8
MY3DLAYER
10
-4.923363037967248
20
30.35096244474299
30
7.748813211408672e-14
 70
     32
  0
VERTEX
  8
MY3DLAYER
10
-4.902489283642932
20
30.366979439776483
30
7.748813211408672e-14
 70
     32
  0
VERTEX
  8
MY3DLAYER
10
-4.886472288609443
20
30.387853194100792
30
7.748813211408672e-14
 70
     32
  0
VERTEX
  8
MY3DLAYER
10
-4.876403584608979
20
30.41216119585424
30
7.748813211408672e-14
 70
     32
  0
VERTEX
  8
MY3DLAYER
10
-4.8729693371798435
20
30.438246894888195
30
7.748813211408672e-14
 70
     32
  0
VERTEX
  8
MY3DLAYER
10
-4.876403584608979
20
30.464332593922148
30
7.748813211408672e-14
 70
     32
  0
VERTEX
  8
MY3DLAYER
10
-4.886472288609443
20
30.488640595675598
30
7.748813211408672e-14
 70
     32
  0
VERTEX
  8
MY3DLAYER
10
-4.9024892836429315
20
30.50951434999991
30
7.748813211408672e-14
 70
     32
  0
VERTEX
  8
MY3DLAYER
10
-4.923363037967246
20
30.5255313450334
30
7.748813211408672e-14
 70
     32
  0
VERTEX
  8
MY3DLAYER
10
-4.947671039720692
20
30.535600049033867
30
7.748813211408672e-14
 70
     32
  0
VERTEX
  8
MY3DLAYER
10
-4.973756738754647
20
30.539034296462997
30
7.748813211408672e-14
 70
     32
  0
SEQEND
  0
POLYLINE
 8
Component#49
 66
     1
70
    8
 10
0.0
 20
 0.0
 30
0.0
  0
VERTEX
  8
MY3DLAYER
10
-5.4708613261603745
20
32.22092406024309
30
7.748813211408672e-14
 70
     32
  0
VERTEX
  8
MY3DLAYER
10
-5.454844331126887
20
32.241797814567406
30
7.748813211408672e-14
 70
     32
  0
VERTEX
  8
MY3DLAYER
10
-5.433970576802572
20
32.257814809600895
30
7.748813211408672e-14
 70
     32
  0
VERTEX
  8
MY3DLAYER
10
-5.409662575049126
20
32.26788351360136
30
7.748813211408672e-14
 70
     32
  0
VERTEX
  8
MY3DLAYER
10
-5.383576876015172
20
32.271317761030495
30
7.748813211408672e-14
 70
     32
  0
VERTEX
  8
MY3DLAYER
10
-5.357491176981215
20
32.26788351360136
30
7.748813211408672e-14
 70
     32
  0
VERTEX
  8
MY3DLAYER
10
-5.333183175227769
20
32.257814809600895
30
7.748813211408672e-14
 70
     32
  0
VERTEX
  8
MY3DLAYER
10
-5.312309420903459
20
32.241797814567406
30
7.748813211408672e-14
 70
     32
  0
VERTEX
  8
MY3DLAYER
10
-5.296292425869968
20
32.22092406024309
30
7.748813211408672e-14
 70
     32
  0
VERTEX
  8
MY3DLAYER
10
-5.286223721869504
20
32.196616058489646
30
7.748813211408672e-14
 70
     32
  0
VERTEX
  8
MY3DLAYER
10
-5.282789474440367
20
32.17053035945569
30
7.748813211408672e-14
 70
     32
  0
VERTEX
  8
MY3DLAYER
10
-5.2862237218695025
20
32.14444466042174
30
7.748813211408672e-14
 70
     32
  0
VERTEX
  8
MY3DLAYER
10
-5.296292425869969
20
32.120136658668294
30
7.748813211408672e-14
 70
     32
  0
VERTEX
  8
MY3DLAYER
10
-5.312309420903458
20
32.09926290434397
30
7.748813211408672e-14
 70
     32
  0
VERTEX
  8
MY3DLAYER
10
-5.333183175227772
20
32.08324590931049
30
7.748813211408672e-14
 70
     32
  0
VERTEX
  8
MY3DLAYER
10
-5.3574911769812195
20
32.07317720531002
30
7.748813211408672e-14
 70
     32
  0
VERTEX
  8
MY3DLAYER
10
-5.383576876015173
20
32.06974295788089
30
7.748813211408672e-14
 70
     32
  0
VERTEX
  8
MY3DLAYER
10
-5.409662575049128
20
32.073177205310024
30
7.748813211408672e-14
 70
     32
  0
VERTEX
  8
MY3DLAYER
10
-5.433970576802574
20
32.08324590931049
30
7.748813211408672e-14
 70
     32
  0
VERTEX
  8
MY3DLAYER
10
-5.454844331126888
20
32.09926290434398
30
7.748813211408672e-14
 70
     32
  0
VERTEX
  8
MY3DLAYER
10
-5.470861326160377
20
32.12013665866829
30
7.748813211408672e-14
 70
     32
  0
VERTEX
  8
MY3DLAYER
10
-5.480930030160842
20
32.14444466042174
30
7.748813211408672e-14
 70
     32
  0
VERTEX
  8
MY3DLAYER
10
-5.484364277589975
20
32.17053035945569
30
7.748813211408672e-14
 70
     32
  0
VERTEX
  8
MY3DLAYER
10
-5.4809300301608435
20
32.196616058489646
30
7.748813211408672e-14
 70
     32
  0
VERTEX
  8
MY3DLAYER
10
-5.4708613261603745
20
32.22092406024309
30
7.748813211408672e-14
 70
     32
  0
SEQEND
  0
POLYLINE
 8
Component#46
 66
     1
70
    8
 10
0.0
 20
 0.0
 30
0.0
  0
VERTEX
  8
MY3DLAYER
10
-4.079191345639785
20
37.973816934447285
30
5.017989607531777e-13
 70
     32
  0
VERTEX
  8
MY3DLAYER
10
-4.111725866801558
20
37.93141712097602
30
5.017989607531777e-13
 70
     32
  0
VERTEX
  8
MY3DLAYER
10
-4.154125680272823
20
37.89888259981425
30
5.017989607531777e-13
 70
     32
  0
VERTEX
  8
MY3DLAYER
10
-4.203501308834508
20
37.878430544813305
30
5.017989607531777e-13
 70
     32
  0
VERTEX
  8
MY3DLAYER
10
-4.256487884997228
20
37.87145472972288
30
5.017989607531777e-13
 70
     32
  0
VERTEX
  8
MY3DLAYER
10
-4.30947446115995
20
37.878430544813305
30
5.017989607531777e-13
 70
     32
  0
VERTEX
  8
MY3DLAYER
10
-4.358850089721641
20
37.89888259981425
30
5.017989607531777e-13
 70
     32
  0
VERTEX
  8
MY3DLAYER
10
-4.401249903192901
20
37.93141712097603
30
5.017989607531777e-13
 70
     32
  0
VERTEX
  8
MY3DLAYER
10
-4.433784424354674
20
37.973816934447285
30
5.017989607531777e-13
 70
     32
  0
VERTEX
  8
MY3DLAYER
10
-4.454236479355619
20
38.023192563008976
30
5.017989607531777e-13
 70
     32
  0
VERTEX
  8
MY3DLAYER
10
-4.461212294446047
20
38.0761791391717
30
5.017989607531777e-13
 70
     32
  0
VERTEX
  8
MY3DLAYER
10
-4.454236479355619
20
38.129165715334416
30
5.017989607531777e-13
 70
     32
  0
VERTEX
  8
MY3DLAYER
10
-4.4337844243546725
20
38.17854134389611
30
5.017989607531777e-13
 70
     32
  0
VERTEX
  8
MY3DLAYER
10
-4.401249903192897
20
38.22094115736737
30
5.017989607531777e-13
 70
     32
  0
VERTEX
  8
MY3DLAYER
10
-4.358850089721636
20
38.25347567852914
30
5.017989607531777e-13
 70
     32
  0
VERTEX
  8
MY3DLAYER
10
-4.3094744611599465
20
38.27392773353009
30
5.017989607531777e-13
 70
     32
  0
VERTEX
  8
MY3DLAYER
10
-4.256487884997228
20
38.280903548620515
30
5.017989607531777e-13
 70
     32
  0
VERTEX
  8
MY3DLAYER
10
-4.203501308834506
20
38.27392773353009
30
5.017989607531777e-13
 70
     32
  0
VERTEX
  8
MY3DLAYER
10
-4.15412568027282
20
38.25347567852914
30
5.017989607531777e-13
 70
     32
  0
VERTEX
  8
MY3DLAYER
10
-4.1117258668015575
20
38.22094115736736
30
5.017989607531777e-13
 70
     32
  0
VERTEX
  8
MY3DLAYER
10
-4.079191345639784
20
38.17854134389611
30
5.017989607531777e-13
 70
     32
  0
VERTEX
  8
MY3DLAYER
10
-4.058739290638836
20
38.129165715334416
30
5.017989607531777e-13
 70
     32
  0
VERTEX
  8
MY3DLAYER
10
-4.051763475548411
20
38.07617913917169
30
5.017989607531777e-13
 70
     32
  0
VERTEX
  8
MY3DLAYER
10
-4.058739290638838
20
38.023192563008976
30
5.017989607531777e-13
 70
     32
  0
VERTEX
  8
MY3DLAYER
10
-4.079191345639785
20
37.973816934447285
30
5.017989607531777e-13
 70
     32
  0
SEQEND
  0
POLYLINE
 8
Component#46
 66
     1
70
    8
 10
0.0
 20
 0.0
 30
0.0
  0
VERTEX
  8
MY3DLAYER
10
-4.256487884997228
20
37.975391737596894
30
5.017989607531777e-13
 70
     32
  0
VERTEX
  8
MY3DLAYER
10
-4.230402185963278
20
37.97882598502602
30
5.017989607531777e-13
 70
     32
  0
VERTEX
  8
MY3DLAYER
10
-4.206094184209832
20
37.988894689026495
30
5.017989607531777e-13
 70
     32
  0
VERTEX
  8
MY3DLAYER
10
-4.185220429885517
20
38.00491168405998
30
5.017989607531777e-13
 70
     32
  0
VERTEX
  8
MY3DLAYER
10
-4.169203434852028
20
38.02578543838429
30
5.017989607531777e-13
 70
     32
  0
VERTEX
  8
MY3DLAYER
10
-4.159134730851564
20
38.05009344013774
30
5.017989607531777e-13
 70
     32
  0
VERTEX
  8
MY3DLAYER
10
-4.155700483422429
20
38.07617913917169
30
5.017989607531777e-13
 70
     32
  0
VERTEX
  8
MY3DLAYER
10
-4.159134730851561
20
38.10226483820565
30
5.017989607531777e-13
 70
     32
  0
VERTEX
  8
MY3DLAYER
10
-4.169203434852025
20
38.126572839959096
30
5.017989607531777e-13
 70
     32
  0
VERTEX
  8
MY3DLAYER
10
-4.185220429885516
20
38.14744659428341
30
5.017989607531777e-13
 70
     32
  0
VERTEX
  8
MY3DLAYER
10
-4.206094184209829
20
38.1634635893169
30
5.017989607531777e-13
 70
     32
  0
VERTEX
  8
MY3DLAYER
10
-4.230402185963277
20
38.173532293317365
30
5.017989607531777e-13
 70
     32
  0
VERTEX
  8
MY3DLAYER
10
-4.256487884997228
20
38.1769665407465
30
5.017989607531777e-13
 70
     32
  0
VERTEX
  8
MY3DLAYER
10
-4.282573584031183
20
38.173532293317365
30
5.017989607531777e-13
 70
     32
  0
VERTEX
  8
MY3DLAYER
10
-4.306881585784629
20
38.1634635893169
30
5.017989607531777e-13
 70
     32
  0
VERTEX
  8
MY3DLAYER
10
-4.327755340108944
20
38.14744659428341
30
5.017989607531777e-13
 70
     32
  0
VERTEX
  8
MY3DLAYER
10
-4.343772335142433
20
38.126572839959096
30
5.017989607531777e-13
 70
     32
  0
VERTEX
  8
MY3DLAYER
10
-4.353841039142897
20
38.10226483820565
30
5.017989607531777e-13
 70
     32
  0
VERTEX
  8
MY3DLAYER
10
-4.357275286572032
20
38.0761791391717
30
5.017989607531777e-13
 70
     32
  0
VERTEX
  8
MY3DLAYER
10
-4.3538410391429005
20
38.05009344013774
30
5.017989607531777e-13
 70
     32
  0
VERTEX
  8
MY3DLAYER
10
-4.343772335142433
20
38.0257854383843
30
5.017989607531777e-13
 70
     32
  0
VERTEX
  8
MY3DLAYER
10
-4.327755340108944
20
38.004911684059984
30
5.017989607531777e-13
 70
     32
  0
VERTEX
  8
MY3DLAYER
10
-4.306881585784633
20
37.988894689026495
30
5.017989607531777e-13
 70
     32
  0
VERTEX
  8
MY3DLAYER
10
-4.282573584031188
20
37.97882598502603
30
5.017989607531777e-13
 70
     32
  0
VERTEX
  8
MY3DLAYER
10
-4.256487884997228
20
37.975391737596894
30
5.017989607531777e-13
 70
     32
  0
SEQEND
  0
POLYLINE
 8
Component#46
 66
     1
70
    8
 10
0.0
 20
 0.0
 30
0.0
  0
VERTEX
  8
MY3DLAYER
10
0.5448796860603102
20
33.97472420759017
30
5.017989607531777e-13
 70
     32
  0
VERTEX
  8
MY3DLAYER
10
0.5123451648985373
20
34.017124021061434
30
5.017989607531777e-13
 70
     32
  0
VERTEX
  8
MY3DLAYER
10
0.49189310989758894
20
34.066499649623125
30
5.017989607531777e-13
 70
     32
  0
VERTEX
  8
MY3DLAYER
10
0.48491729480716517
20
34.11948622578584
30
5.017989607531777e-13
 70
     32
  0
VERTEX
  8
MY3DLAYER
10
0.49189310989758983
20
34.172472801948565
30
5.017989607531777e-13
 70
     32
  0
VERTEX
  8
MY3DLAYER
10
0.51234516489854
20
34.22184843051025
30
5.017989607531777e-13
 70
     32
  0
VERTEX
  8
MY3DLAYER
10
0.544879686060312
20
34.26424824398151
30
5.017989607531777e-13
 70
     32
  0
VERTEX
  8
MY3DLAYER
10
0.5872794995315735
20
34.296782765143284
30
5.017989607531777e-13
 70
     32
  0
VERTEX
  8
MY3DLAYER
10
0.6366551280932611
20
34.317234820144236
30
5.017989607531777e-13
 70
     32
  0
VERTEX
  8
MY3DLAYER
10
0.6896417042559833
20
34.324210635234664
30
5.017989607531777e-13
 70
     32
  0
VERTEX
  8
MY3DLAYER
10
0.7426282804187028
20
34.317234820144236
30
5.017989607531777e-13
 70
     32
  0
VERTEX
  8
MY3DLAYER
10
0.7920039089803921
20
34.296782765143284
30
5.017989607531777e-13
 70
     32
  0
VERTEX
  8
MY3DLAYER
10
0.8344037224516536
20
34.26424824398151
30
5.017989607531777e-13
 70
     32
  0
VERTEX
  8
MY3DLAYER
10
0.8669382436134283
20
34.22184843051025
30
5.017989607531777e-13
 70
     32
  0
VERTEX
  8
MY3DLAYER
10
0.8873902986143749
20
34.172472801948565
30
5.017989607531777e-13
 70
     32
  0
VERTEX
  8
MY3DLAYER
10
0.8943661137048022
20
34.11948622578584
30
5.017989607531777e-13
 70
     32
  0
VERTEX
  8
MY3DLAYER
10
0.8873902986143722
20
34.06649964962312
30
5.017989607531777e-13
 70
     32
  0
VERTEX
  8
MY3DLAYER
10
0.8669382436134256
20
34.017124021061434
30
5.017989607531777e-13
 70
     32
  0
VERTEX
  8
MY3DLAYER
10
0.8344037224516518
20
33.97472420759017
30
5.017989607531777e-13
 70
     32
  0
VERTEX
  8
MY3DLAYER
10
0.7920039089803903
20
33.9421896864284
30
5.017989607531777e-13
 70
     32
  0
VERTEX
  8
MY3DLAYER
10
0.7426282804187028
20
33.92173763142745
30
5.017989607531777e-13
 70
     32
  0
VERTEX
  8
MY3DLAYER
10
0.689641704255981
20
33.91476181633702
30
5.017989607531777e-13
 70
     32
  0
VERTEX
  8
MY3DLAYER
10
0.6366551280932611
20
33.92173763142745
30
5.017989607531777e-13
 70
     32
  0
VERTEX
  8
MY3DLAYER
10
0.5872794995315718
20
33.9421896864284
30
5.017989607531777e-13
 70
     32
  0
VERTEX
  8
MY3DLAYER
10
0.5448796860603102
20
33.97472420759017
30
5.017989607531777e-13
 70
     32
  0
SEQEND
  0
POLYLINE
 8
Component#46
 66
     1
70
    8
 10
0.0
 20
 0.0
 30
0.0
  0
VERTEX
  8
MY3DLAYER
10
0.6023572541107765
20
34.06909252499844
30
5.017989607531777e-13
 70
     32
  0
VERTEX
  8
MY3DLAYER
10
0.6183742491442654
20
34.048218770674126
30
5.017989607531777e-13
 70
     32
  0
VERTEX
  8
MY3DLAYER
10
0.6392480034685768
20
34.03220177564064
30
5.017989607531777e-13
 70
     32
  0
VERTEX
  8
MY3DLAYER
10
0.6635560052220253
20
34.02213307164017
30
5.017989607531777e-13
 70
     32
  0
VERTEX
  8
MY3DLAYER
10
0.6896417042559797
20
34.018698824211036
30
5.017989607531777e-13
 70
     32
  0
VERTEX
  8
MY3DLAYER
10
0.7157274032899341
20
34.02213307164017
30
5.017989607531777e-13
 70
     32
  0
VERTEX
  8
MY3DLAYER
10
0.7400354050433791
20
34.03220177564064
30
5.017989607531777e-13
 70
     32
  0
VERTEX
  8
MY3DLAYER
10
0.7609091593676958
20
34.048218770674126
30
5.017989607531777e-13
 70
     32
  0
VERTEX
  8
MY3DLAYER
10
0.7769261544011847
20
34.06909252499844
30
5.017989607531777e-13
 70
     32
  0
VERTEX
  8
MY3DLAYER
10
0.7869948584016488
20
34.093400526751886
30
5.017989607531777e-13
 70
     32
  0
VERTEX
  8
MY3DLAYER
10
0.7904291058307842
20
34.11948622578584
30
5.017989607531777e-13
 70
     32
  0
VERTEX
  8
MY3DLAYER
10
0.7869948584016506
20
34.1455719248198
30
5.017989607531777e-13
 70
     32
  0
VERTEX
  8
MY3DLAYER
10
0.7769261544011856
20
34.169879926573245
30
5.017989607531777e-13
 70
     32
  0
VERTEX
  8
MY3DLAYER
10
0.7609091593676967
20
34.19075368089756
30
5.017989607531777e-13
 70
     32
  0
VERTEX
  8
MY3DLAYER
10
0.7400354050433817
20
34.20677067593105
30
5.017989607531777e-13
 70
     32
  0
VERTEX
  8
MY3DLAYER
10
0.7157274032899368
20
34.216839379931514
30
5.017989607531777e-13
 70
     32
  0
VERTEX
  8
MY3DLAYER
10
0.6896417042559806
20
34.22027362736065
30
5.017989607531777e-13
 70
     32
  0
VERTEX
  8
MY3DLAYER
10
0.6635560052220262
20
34.216839379931514
30
5.017989607531777e-13
 70
     32
  0
VERTEX
  8
MY3DLAYER
10
0.6392480034685777
20
34.20677067593105
30
5.017989607531777e-13
 70
     32
  0
VERTEX
  8
MY3DLAYER
10
0.6183742491442663
20
34.19075368089756
30
5.017989607531777e-13
 70
     32
  0
VERTEX
  8
MY3DLAYER
10
0.6023572541107756
20
34.169879926573245
30
5.017989607531777e-13
 70
     32
  0
VERTEX
  8
MY3DLAYER
10
0.5922885501103115
20
34.1455719248198
30
5.017989607531777e-13
 70
     32
  0
VERTEX
  8
MY3DLAYER
10
0.5888543026811779
20
34.11948622578584
30
5.017989607531777e-13
 70
     32
  0
VERTEX
  8
MY3DLAYER
10
0.5922885501103115
20
34.093400526751886
30
5.017989607531777e-13
 70
     32
  0
VERTEX
  8
MY3DLAYER
10
0.6023572541107765
20
34.06909252499844
30
5.017989607531777e-13
 70
     32
  0
SEQEND
  0
POLYLINE
 8
Component#46
 66
     1
70
    8
 10
0.0
 20
 0.0
 30
0.0
  0
VERTEX
  8
MY3DLAYER
10
-4.154125680272816
20
38.6862841746174
30
5.017989607531777e-13
 70
     32
  0
VERTEX
  8
MY3DLAYER
10
-4.203501308834506
20
38.665832119616454
30
5.017989607531777e-13
 70
     32
  0
VERTEX
  8
MY3DLAYER
10
-4.256487884997225
20
38.658856304526026
30
5.017989607531777e-13
 70
     32
  0
VERTEX
  8
MY3DLAYER
10
-4.309474461159945
20
38.665832119616454
30
5.017989607531777e-13
 70
     32
  0
VERTEX
  8
MY3DLAYER
10
-4.358850089721634
20
38.686284174617406
30
5.017989607531777e-13
 70
     32
  0
VERTEX
  8
MY3DLAYER
10
-4.4012499031928956
20
38.71881869577918
30
5.017989607531777e-13
 70
     32
  0
VERTEX
  8
MY3DLAYER
10
-4.433784424354667
20
38.76121850925044
30
5.017989607531777e-13
 70
     32
  0
VERTEX
  8
MY3DLAYER
10
-4.454236479355614
20
38.810594137812124
30
5.017989607531777e-13
 70
     32
  0
VERTEX
  8
MY3DLAYER
10
-4.4612122944460415
20
38.86358071397485
30
5.017989607531777e-13
 70
     32
  0
VERTEX
  8
MY3DLAYER
10
-4.4542364793556155
20
38.916567290137564
30
5.017989607531777e-13
 70
     32
  0
VERTEX
  8
MY3DLAYER
10
-4.433784424354669
20
38.965942918699255
30
5.017989607531777e-13
 70
     32
  0
VERTEX
  8
MY3DLAYER
10
-4.401249903192892
20
39.00834273217052
30
5.017989607531777e-13
 70
     32
  0
VERTEX
  8
MY3DLAYER
10
-4.358850089721632
20
39.04087725333229
30
5.017989607531777e-13
 70
     32
  0
VERTEX
  8
MY3DLAYER
10
-4.309474461159941
20
39.06132930833324
30
5.017989607531777e-13
 70
     32
  0
VERTEX
  8
MY3DLAYER
10
-4.256487884997223
20
39.06830512342366
30
5.017989607531777e-13
 70
     32
  0
VERTEX
  8
MY3DLAYER
10
-4.203501308834502
20
39.061329308333235
30
5.017989607531777e-13
 70
     32
  0
VERTEX
  8
MY3DLAYER
10
-4.154125680272815
20
39.04087725333229
30
5.017989607531777e-13
 70
     32
  0
VERTEX
  8
MY3DLAYER
10
-4.111725866801553
20
39.00834273217052
30
5.017989607531777e-13
 70
     32
  0
VERTEX
  8
MY3DLAYER
10
-4.079191345639778
20
38.965942918699255
30
5.017989607531777e-13
 70
     32
  0
VERTEX
  8
MY3DLAYER
10
-4.058739290638831
20
38.916567290137564
30
5.017989607531777e-13
 70
     32
  0
VERTEX
  8
MY3DLAYER
10
-4.051763475548406
20
38.86358071397485
30
5.017989607531777e-13
 70
     32
  0
VERTEX
  8
MY3DLAYER
10
-4.058739290638832
20
38.810594137812124
30
5.017989607531777e-13
 70
     32
  0
VERTEX
  8
MY3DLAYER
10
-4.079191345639781
20
38.76121850925043
30
5.017989607531777e-13
 70
     32
  0
VERTEX
  8
MY3DLAYER
10
-4.111725866801555
20
38.71881869577917
30
5.017989607531777e-13
 70
     32
  0
VERTEX
  8
MY3DLAYER
10
-4.154125680272816
20
38.6862841746174
30
5.017989607531777e-13
 70
     32
  0
SEQEND
  0
POLYLINE
 8
Component#46
 66
     1
70
    8
 10
0.0
 20
 0.0
 30
0.0
  0
VERTEX
  8
MY3DLAYER
10
-4.2060941842098245
20
38.950865164120046
30
5.017989607531777e-13
 70
     32
  0
VERTEX
  8
MY3DLAYER
10
-4.230402185963271
20
38.96093386812051
30
5.017989607531777e-13
 70
     32
  0
VERTEX
  8
MY3DLAYER
10
-4.256487884997225
20
38.96436811554965
30
5.017989607531777e-13
 70
     32
  0
VERTEX
  8
MY3DLAYER
10
-4.282573584031181
20
38.96093386812051
30
5.017989607531777e-13
 70
     32
  0
VERTEX
  8
MY3DLAYER
10
-4.306881585784626
20
38.950865164120046
30
5.017989607531777e-13
 70
     32
  0
VERTEX
  8
MY3DLAYER
10
-4.327755340108939
20
38.934848169086564
30
5.017989607531777e-13
 70
     32
  0
VERTEX
  8
MY3DLAYER
10
-4.343772335142428
20
38.91397441476225
30
5.017989607531777e-13
 70
     32
  0
VERTEX
  8
MY3DLAYER
10
-4.353841039142897
20
38.889666413008804
30
5.017989607531777e-13
 70
     32
  0
VERTEX
  8
MY3DLAYER
10
-4.357275286572027
20
38.86358071397485
30
5.017989607531777e-13
 70
     32
  0
VERTEX
  8
MY3DLAYER
10
-4.353841039142895
20
38.83749501494089
30
5.017989607531777e-13
 70
     32
  0
VERTEX
  8
MY3DLAYER
10
-4.34377233514243
20
38.813187013187445
30
5.017989607531777e-13
 70
     32
  0
VERTEX
  8
MY3DLAYER
10
-4.327755340108939
20
38.79231325886313
30
5.017989607531777e-13
 70
     32
  0
VERTEX
  8
MY3DLAYER
10
-4.306881585784628
20
38.77629626382964
30
5.017989607531777e-13
 70
     32
  0
VERTEX
  8
MY3DLAYER
10
-4.282573584031181
20
38.766227559829176
30
5.017989607531777e-13
 70
     32
  0
VERTEX
  8
MY3DLAYER
10
-4.256487884997223
20
38.76279331240004
30
5.017989607531777e-13
 70
     32
  0
VERTEX
  8
MY3DLAYER
10
-4.230402185963274
20
38.766227559829176
30
5.017989607531777e-13
 70
     32
  0
VERTEX
  8
MY3DLAYER
10
-4.206094184209829
20
38.77629626382964
30
5.017989607531777e-13
 70
     32
  0
VERTEX
  8
MY3DLAYER
10
-4.185220429885512
20
38.79231325886313
30
5.017989607531777e-13
 70
     32
  0
VERTEX
  8
MY3DLAYER
10
-4.169203434852023
20
38.813187013187445
30
5.017989607531777e-13
 70
     32
  0
VERTEX
  8
MY3DLAYER
10
-4.159134730851558
20
38.837495014940885
30
5.017989607531777e-13
 70
     32
  0
VERTEX
  8
MY3DLAYER
10
-4.155700483422424
20
38.86358071397484
30
5.017989607531777e-13
 70
     32
  0
VERTEX
  8
MY3DLAYER
10
-4.159134730851558
20
38.8896664130088
30
5.017989607531777e-13
 70
     32
  0
VERTEX
  8
MY3DLAYER
10
-4.169203434852022
20
38.913974414762244
30
5.017989607531777e-13
 70
     32
  0
VERTEX
  8
MY3DLAYER
10
-4.185220429885511
20
38.934848169086564
30
5.017989607531777e-13
 70
     32
  0
VERTEX
  8
MY3DLAYER
10
-4.2060941842098245
20
38.950865164120046
30
5.017989607531777e-13
 70
     32
  0
SEQEND
  0
POLYLINE
 8
Component#46
 66
     1
70
    8
 10
0.0
 20
 0.0
 30
0.0
  0
VERTEX
  8
MY3DLAYER
10
0.3302152677828567
20
35.76448524020757
30
5.017989607531777e-13
 70
     32
  0
VERTEX
  8
MY3DLAYER
10
0.30590726602941176
20
35.7544165362071
30
5.017989607531777e-13
 70
     32
  0
VERTEX
  8
MY3DLAYER
10
0.27982156699545735
20
35.75098228877797
30
5.017989607531777e-13
 70
     32
  0
VERTEX
  8
MY3DLAYER
10
0.25373586796150294
20
35.7544165362071
30
5.017989607531777e-13
 70
     32
  0
VERTEX
  8
MY3DLAYER
10
0.22942786620805444
20
35.76448524020757
30
5.017989607531777e-13
 70
     32
  0
VERTEX
  8
MY3DLAYER
10
0.20855411188374307
20
35.78050223524106
30
5.017989607531777e-13
 70
     32
  0
VERTEX
  8
MY3DLAYER
10
0.1925371168502541
20
35.80137598956537
30
5.017989607531777e-13
 70
     32
  0
VERTEX
  8
MY3DLAYER
10
0.1824684128497891
20
35.82568399131882
30
5.017989607531777e-13
 70
     32
  0
VERTEX
  8
MY3DLAYER
10
0.17903416542065553
20
35.851769690352775
30
5.017989607531777e-13
 70
     32
  0
VERTEX
  8
MY3DLAYER
10
0.1824684128497891
20
35.87785538938673
30
5.017989607531777e-13
 70
     32
  0
VERTEX
  8
MY3DLAYER
10
0.1925371168502532
20
35.90216339114017
30
5.017989607531777e-13
 70
     32
  0
VERTEX
  8
MY3DLAYER
10
0.20855411188374218
20
35.923037145464484
30
5.017989607531777e-13
 70
     32
  0
VERTEX
  8
MY3DLAYER
10
0.22942786620805533
20
35.93905414049798
30
5.017989607531777e-13
 70
     32
  0
VERTEX
  8
MY3DLAYER
10
0.2537358679615038
20
35.94912284449844
30
5.017989607531777e-13
 70
     32
  0
VERTEX
  8
MY3DLAYER
10
0.27982156699545824
20
35.952557091927574
30
5.017989607531777e-13
 70
     32
  0
VERTEX
  8
MY3DLAYER
10
0.3059072660294144
20
35.94912284449844
30
5.017989607531777e-13
 70
     32
  0
VERTEX
  8
MY3DLAYER
10
0.33021526778285937
20
35.93905414049798
30
5.017989607531777e-13
 70
     32
  0
VERTEX
  8
MY3DLAYER
10
0.3510890221071743
20
35.92303714546449
30
5.017989607531777e-13
 70
     32
  0
VERTEX
  8
MY3DLAYER
10
0.36710601714066327
20
35.90216339114018
30
5.017989607531777e-13
 70
     32
  0
VERTEX
  8
MY3DLAYER
10
0.37717472114112827
20
35.87785538938673
30
5.017989607531777e-13
 70
     32
  0
VERTEX
  8
MY3DLAYER
10
0.38060896857026183
20
35.851769690352775
30
5.017989607531777e-13
 70
     32
  0
VERTEX
  8
MY3DLAYER
10
0.3771747211411265
20
35.82568399131882
30
5.017989607531777e-13
 70
     32
  0
VERTEX
  8
MY3DLAYER
10
0.3671060171406624
20
35.80137598956537
30
5.017989607531777e-13
 70
     32
  0
VERTEX
  8
MY3DLAYER
10
0.3510890221071734
20
35.78050223524106
30
5.017989607531777e-13
 70
     32
  0
VERTEX
  8
MY3DLAYER
10
0.3302152677828567
20
35.76448524020757
30
5.017989607531777e-13
 70
     32
  0
SEQEND
  0
POLYLINE
 8
Component#46
 66
     1
70
    8
 10
0.0
 20
 0.0
 30
0.0
  0
VERTEX
  8
MY3DLAYER
10
0.6183742491442654
20
34.048218770674126
30
5.017989607531777e-13
 70
     32
  0
VERTEX
  8
MY3DLAYER
10
0.6023572541107765
20
34.06909252499844
30
5.017989607531777e-13
 70
     32
  0
VERTEX
  8
MY3DLAYER
10
0.5922885501103115
20
34.093400526751886
30
5.017989607531777e-13
 70
     32
  0
VERTEX
  8
MY3DLAYER
10
0.5888543026811779
20
34.11948622578584
30
5.017989607531777e-13
 70
     32
  0
VERTEX
  8
MY3DLAYER
10
0.5922885501103115
20
34.1455719248198
30
5.017989607531777e-13
 70
     32
  0
VERTEX
  8
MY3DLAYER
10
0.6023572541107756
20
34.169879926573245
30
5.017989607531777e-13
 70
     32
  0
VERTEX
  8
MY3DLAYER
10
0.6183742491442663
20
34.19075368089756
30
5.017989607531777e-13
 70
     32
  0
VERTEX
  8
MY3DLAYER
10
0.6392480034685777
20
34.20677067593105
30
5.017989607531777e-13
 70
     32
  0
VERTEX
  8
MY3DLAYER
10
0.6635560052220262
20
34.216839379931514
30
5.017989607531777e-13
 70
     32
  0
VERTEX
  8
MY3DLAYER
10
0.6896417042559806
20
34.22027362736065
30
5.017989607531777e-13
 70
     32
  0
VERTEX
  8
MY3DLAYER
10
0.7157274032899368
20
34.216839379931514
30
5.017989607531777e-13
 70
     32
  0
VERTEX
  8
MY3DLAYER
10
0.7400354050433817
20
34.20677067593105
30
5.017989607531777e-13
 70
     32
  0
VERTEX
  8
MY3DLAYER
10
0.7609091593676967
20
34.19075368089756
30
5.017989607531777e-13
 70
     32
  0
VERTEX
  8
MY3DLAYER
10
0.7769261544011856
20
34.169879926573245
30
5.017989607531777e-13
 70
     32
  0
VERTEX
  8
MY3DLAYER
10
0.7869948584016506
20
34.1455719248198
30
5.017989607531777e-13
 70
     32
  0
VERTEX
  8
MY3DLAYER
10
0.7904291058307842
20
34.11948622578584
30
5.017989607531777e-13
 70
     32
  0
VERTEX
  8
MY3DLAYER
10
0.7869948584016488
20
34.093400526751886
30
5.017989607531777e-13
 70
     32
  0
VERTEX
  8
MY3DLAYER
10
0.7769261544011847
20
34.06909252499844
30
5.017989607531777e-13
 70
     32
  0
VERTEX
  8
MY3DLAYER
10
0.7609091593676958
20
34.048218770674126
30
5.017989607531777e-13
 70
     32
  0
VERTEX
  8
MY3DLAYER
10
0.7400354050433791
20
34.03220177564064
30
5.017989607531777e-13
 70
     32
  0
VERTEX
  8
MY3DLAYER
10
0.7157274032899341
20
34.02213307164017
30
5.017989607531777e-13
 70
     32
  0
VERTEX
  8
MY3DLAYER
10
0.6896417042559797
20
34.018698824211036
30
5.017989607531777e-13
 70
     32
  0
VERTEX
  8
MY3DLAYER
10
0.6635560052220253
20
34.02213307164017
30
5.017989607531777e-13
 70
     32
  0
VERTEX
  8
MY3DLAYER
10
0.6392480034685768
20
34.03220177564064
30
5.017989607531777e-13
 70
     32
  0
VERTEX
  8
MY3DLAYER
10
0.6183742491442654
20
34.048218770674126
30
5.017989607531777e-13
 70
     32
  0
SEQEND
  0
POLYLINE
 8
Component#46
 66
     1
70
    8
 10
0.0
 20
 0.0
 30
0.0
  0
VERTEX
  8
MY3DLAYER
10
-0.31948001098147394
20
39.06830512342364
30
5.017989607531777e-13
 70
     32
  0
VERTEX
  8
MY3DLAYER
10
-0.266493434818754
20
39.061329308333214
30
5.017989607531777e-13
 70
     32
  0
VERTEX
  8
MY3DLAYER
10
-0.217117806257066
20
39.04087725333227
30
5.017989607531777e-13
 70
     32
  0
VERTEX
  8
MY3DLAYER
10
-0.1747179927858049
20
39.0083427321705
30
5.017989607531777e-13
 70
     32
  0
VERTEX
  8
MY3DLAYER
10
-0.14218347162403155
20
38.965942918699234
30
5.017989607531777e-13
 70
     32
  0
VERTEX
  8
MY3DLAYER
10
-0.12173141662308362
20
38.91656729013754
30
5.017989607531777e-13
 70
     32
  0
VERTEX
  8
MY3DLAYER
10
-0.11475560153265807
20
38.86358071397483
30
5.017989607531777e-13
 70
     32
  0
VERTEX
  8
MY3DLAYER
10
-0.12173141662308407
20
38.8105941378121
30
5.017989607531777e-13
 70
     32
  0
VERTEX
  8
MY3DLAYER
10
-0.1421834716240329
20
38.76121850925041
30
5.017989607531777e-13
 70
     32
  0
VERTEX
  8
MY3DLAYER
10
-0.17471799278580624
20
38.71881869577915
30
5.017989607531777e-13
 70
     32
  0
VERTEX
  8
MY3DLAYER
10
-0.21711780625706822
20
38.686284174617384
30
5.017989607531777e-13
 70
     32
  0
VERTEX
  8
MY3DLAYER
10
-0.26649343481875576
20
38.66583211961643
30
5.017989607531777e-13
 70
     32
  0
VERTEX
  8
MY3DLAYER
10
-0.3194800109814757
20
38.658856304526005
30
5.017989607531777e-13
 70
     32
  0
VERTEX
  8
MY3DLAYER
10
-0.37246658714419567
20
38.66583211961643
30
5.017989607531777e-13
 70
     32
  0
VERTEX
  8
MY3DLAYER
10
-0.42184221570588676
20
38.686284174617384
30
5.017989607531777e-13
 70
     32
  0
VERTEX
  8
MY3DLAYER
10
-0.4642420291771465
20
38.718818695779156
30
5.017989607531777e-13
 70
     32
  0
VERTEX
  8
MY3DLAYER
10
-0.49677655033892076
20
38.76121850925042
30
5.017989607531777e-13
 70
     32
  0
VERTEX
  8
MY3DLAYER
10
-0.5172286053398674
20
38.8105941378121
30
5.017989607531777e-13
 70
     32
  0
VERTEX
  8
MY3DLAYER
10
-0.5242044204302951
20
38.86358071397483
30
5.017989607531777e-13
 70
     32
  0
VERTEX
  8
MY3DLAYER
10
-0.5172286053398647
20
38.91656729013755
30
5.017989607531777e-13
 70
     32
  0
VERTEX
  8
MY3DLAYER
10
-0.4967765503389181
20
38.965942918699234
30
5.017989607531777e-13
 70
     32
  0
VERTEX
  8
MY3DLAYER
10
-0.46424202917714474
20
39.0083427321705
30
5.017989607531777e-13
 70
     32
  0
VERTEX
  8
MY3DLAYER
10
-0.421842215705885
20
39.04087725333227
30
5.017989607531777e-13
 70
     32
  0
VERTEX
  8
MY3DLAYER
10
-0.37246658714419567
20
39.06132930833322
30
5.017989607531777e-13
 70
     32
  0
VERTEX
  8
MY3DLAYER
10
-0.31948001098147394
20
39.06830512342364
30
5.017989607531777e-13
 70
     32
  0
SEQEND
  0
POLYLINE
 8
Component#46
 66
     1
70
    8
 10
0.0
 20
 0.0
 30
0.0
  0
VERTEX
  8
MY3DLAYER
10
-0.23219556083627468
20
38.91397441476222
30
5.017989607531777e-13
 70
     32
  0
VERTEX
  8
MY3DLAYER
10
-0.24821255586976365
20
38.934848169086536
30
5.017989607531777e-13
 70
     32
  0
VERTEX
  8
MY3DLAYER
10
-0.2690863101940746
20
38.950865164120025
30
5.017989607531777e-13
 70
     32
  0
VERTEX
  8
MY3DLAYER
10
-0.2933943119475231
20
38.96093386812049
30
5.017989607531777e-13
 70
     32
  0
VERTEX
  8
MY3DLAYER
10
-0.3194800109814757
20
38.964368115549625
30
5.017989607531777e-13
 70
     32
  0
VERTEX
  8
MY3DLAYER
10
-0.3455657100154319
20
38.96093386812049
30
5.017989607531777e-13
 70
     32
  0
VERTEX
  8
MY3DLAYER
10
-0.3698737117688786
20
38.95086516412003
30
5.017989607531777e-13
 70
     32
  0
VERTEX
  8
MY3DLAYER
10
-0.39074746609319355
20
38.93484816908654
30
5.017989607531777e-13
 70
     32
  0
VERTEX
  8
MY3DLAYER
10
-0.4067644611266825
20
38.91397441476223
30
5.017989607531777e-13
 70
     32
  0
VERTEX
  8
MY3DLAYER
10
-0.4168331651271471
20
38.88966641300878
30
5.017989607531777e-13
 70
     32
  0
VERTEX
  8
MY3DLAYER
10
-0.4202674125562824
20
38.86358071397483
30
5.017989607531777e-13
 70
     32
  0
VERTEX
  8
MY3DLAYER
10
-0.41683316512714885
20
38.83749501494087
30
5.017989607531777e-13
 70
     32
  0
VERTEX
  8
MY3DLAYER
10
-0.4067644611266834
20
38.813187013187424
30
5.017989607531777e-13
 70
     32
  0
VERTEX
  8
MY3DLAYER
10
-0.39074746609319444
20
38.79231325886311
30
5.017989607531777e-13
 70
     32
  0
VERTEX
  8
MY3DLAYER
10
-0.3698737117688813
20
38.77629626382962
30
5.017989607531777e-13
 70
     32
  0
VERTEX
  8
MY3DLAYER
10
-0.34556571001543457
20
38.766227559829154
30
5.017989607531777e-13
 70
     32
  0
VERTEX
  8
MY3DLAYER
10
-0.3194800109814766
20
38.76279331240002
30
5.017989607531777e-13
 70
     32
  0
VERTEX
  8
MY3DLAYER
10
-0.29339431194752574
20
38.766227559829154
30
5.017989607531777e-13
 70
     32
  0
VERTEX
  8
MY3DLAYER
10
-0.269086310194079
20
38.77629626382962
30
5.017989607531777e-13
 70
     32
  0
VERTEX
  8
MY3DLAYER
10
-0.2482125558697641
20
38.7923132588631
30
5.017989607531777e-13
 70
     32
  0
VERTEX
  8
MY3DLAYER
10
-0.23219556083627335
20
38.81318701318742
30
5.017989607531777e-13
 70
     32
  0
VERTEX
  8
MY3DLAYER
10
-0.22212685683580968
20
38.83749501494087
30
5.017989607531777e-13
 70
     32
  0
VERTEX
  8
MY3DLAYER
10
-0.21869260940667612
20
38.86358071397483
30
5.017989607531777e-13
 70
     32
  0
VERTEX
  8
MY3DLAYER
10
-0.22212685683580924
20
38.889666413008776
30
5.017989607531777e-13
 70
     32
  0
VERTEX
  8
MY3DLAYER
10
-0.23219556083627468
20
38.91397441476222
30
5.017989607531777e-13
 70
     32
  0
SEQEND
  0
POLYLINE
 8
Component#46
 66
     1
70
    8
 10
0.0
 20
 0.0
 30
0.0
  0
VERTEX
  8
MY3DLAYER
10
0.4571181063529042
20
35.95413189507718
30
5.017989607531777e-13
 70
     32
  0
VERTEX
  8
MY3DLAYER
10
0.47757016135385255
20
35.90475626651549
30
5.017989607531777e-13
 70
     32
  0
VERTEX
  8
MY3DLAYER
10
0.4845459764442781
20
35.851769690352775
30
5.017989607531777e-13
 70
     32
  0
VERTEX
  8
MY3DLAYER
10
0.4775701613538499
20
35.79878311419005
30
5.017989607531777e-13
 70
     32
  0
VERTEX
  8
MY3DLAYER
10
0.4571181063529033
20
35.74940748562837
30
5.017989607531777e-13
 70
     32
  0
VERTEX
  8
MY3DLAYER
10
0.4245835851911295
20
35.707007672157104
30
5.017989607531777e-13
 70
     32
  0
VERTEX
  8
MY3DLAYER
10
0.38218377171986795
20
35.67447315099533
30
5.017989607531777e-13
 70
     32
  0
VERTEX
  8
MY3DLAYER
10
0.3328081431581804
20
35.65402109599438
30
5.017989607531777e-13
 70
     32
  0
VERTEX
  8
MY3DLAYER
10
0.2798215669954587
20
35.64704528090396
30
5.017989607531777e-13
 70
     32
  0
VERTEX
  8
MY3DLAYER
10
0.22683499083273873
20
35.65402109599438
30
5.017989607531777e-13
 70
     32
  0
VERTEX
  8
MY3DLAYER
10
0.17745936227104941
20
35.67447315099533
30
5.017989607531777e-13
 70
     32
  0
VERTEX
  8
MY3DLAYER
10
0.13505954879978788
20
35.707007672157104
30
5.017989607531777e-13
 70
     32
  0
VERTEX
  8
MY3DLAYER
10
0.10252502763801496
20
35.74940748562837
30
5.017989607531777e-13
 70
     32
  0
VERTEX
  8
MY3DLAYER
10
0.08207297263706659
20
35.79878311419005
30
5.017989607531777e-13
 70
     32
  0
VERTEX
  8
MY3DLAYER
10
0.07509715754664281
20
35.851769690352775
30
5.017989607531777e-13
 70
     32
  0
VERTEX
  8
MY3DLAYER
10
0.08207297263706748
20
35.90475626651549
30
5.017989607531777e-13
 70
     32
  0
VERTEX
  8
MY3DLAYER
10
0.10252502763801763
20
35.95413189507718
30
5.017989607531777e-13
 70
     32
  0
VERTEX
  8
MY3DLAYER
10
0.13505954879978965
20
35.996531708548446
30
5.017989607531777e-13
 70
     32
  0
VERTEX
  8
MY3DLAYER
10
0.1774593622710512
20
36.02906622971022
30
5.017989607531777e-13
 70
     32
  0
VERTEX
  8
MY3DLAYER
10
0.22683499083273873
20
36.04951828471117
30
5.017989607531777e-13
 70
     32
  0
VERTEX
  8
MY3DLAYER
10
0.27982156699546046
20
36.05649409980159
30
5.017989607531777e-13
 70
     32
  0
VERTEX
  8
MY3DLAYER
10
0.3328081431581804
20
36.04951828471117
30
5.017989607531777e-13
 70
     32
  0
VERTEX
  8
MY3DLAYER
10
0.3821837717198697
20
36.02906622971022
30
5.017989607531777e-13
 70
     32
  0
VERTEX
  8
MY3DLAYER
10
0.42458358519113126
20
35.996531708548446
30
5.017989607531777e-13
 70
     32
  0
VERTEX
  8
MY3DLAYER
10
0.4571181063529042
20
35.95413189507718
30
5.017989607531777e-13
 70
     32
  0
SEQEND
  0
POLYLINE
 8
Component#46
 66
     1
70
    8
 10
0.0
 20
 0.0
 30
0.0
  0
VERTEX
  8
MY3DLAYER
10
0.30590726602941176
20
35.7544165362071
30
5.017989607531777e-13
 70
     32
  0
VERTEX
  8
MY3DLAYER
10
0.3302152677828567
20
35.76448524020757
30
5.017989607531777e-13
 70
     32
  0
VERTEX
  8
MY3DLAYER
10
0.3510890221071734
20
35.78050223524106
30
5.017989607531777e-13
 70
     32
  0
VERTEX
  8
MY3DLAYER
10
0.3671060171406624
20
35.80137598956537
30
5.017989607531777e-13
 70
     32
  0
VERTEX
  8
MY3DLAYER
10
0.3771747211411265
20
35.82568399131882
30
5.017989607531777e-13
 70
     32
  0
VERTEX
  8
MY3DLAYER
10
0.38060896857026183
20
35.851769690352775
30
5.017989607531777e-13
 70
     32
  0
VERTEX
  8
MY3DLAYER
10
0.37717472114112827
20
35.87785538938673
30
5.017989607531777e-13
 70
     32
  0
VERTEX
  8
MY3DLAYER
10
0.36710601714066327
20
35.90216339114018
30
5.017989607531777e-13
 70
     32
  0
VERTEX
  8
MY3DLAYER
10
0.3510890221071743
20
35.92303714546449
30
5.017989607531777e-13
 70
     32
  0
VERTEX
  8
MY3DLAYER
10
0.33021526778285937
20
35.93905414049798
30
5.017989607531777e-13
 70
     32
  0
VERTEX
  8
MY3DLAYER
10
0.3059072660294144
20
35.94912284449844
30
5.017989607531777e-13
 70
     32
  0
VERTEX
  8
MY3DLAYER
10
0.27982156699545824
20
35.952557091927574
30
5.017989607531777e-13
 70
     32
  0
VERTEX
  8
MY3DLAYER
10
0.2537358679615038
20
35.94912284449844
30
5.017989607531777e-13
 70
     32
  0
VERTEX
  8
MY3DLAYER
10
0.22942786620805533
20
35.93905414049798
30
5.017989607531777e-13
 70
     32
  0
VERTEX
  8
MY3DLAYER
10
0.20855411188374218
20
35.923037145464484
30
5.017989607531777e-13
 70
     32
  0
VERTEX
  8
MY3DLAYER
10
0.1925371168502532
20
35.90216339114017
30
5.017989607531777e-13
 70
     32
  0
VERTEX
  8
MY3DLAYER
10
0.1824684128497891
20
35.87785538938673
30
5.017989607531777e-13
 70
     32
  0
VERTEX
  8
MY3DLAYER
10
0.17903416542065553
20
35.851769690352775
30
5.017989607531777e-13
 70
     32
  0
VERTEX
  8
MY3DLAYER
10
0.1824684128497891
20
35.82568399131882
30
5.017989607531777e-13
 70
     32
  0
VERTEX
  8
MY3DLAYER
10
0.1925371168502541
20
35.80137598956537
30
5.017989607531777e-13
 70
     32
  0
VERTEX
  8
MY3DLAYER
10
0.20855411188374307
20
35.78050223524106
30
5.017989607531777e-13
 70
     32
  0
VERTEX
  8
MY3DLAYER
10
0.22942786620805444
20
35.76448524020757
30
5.017989607531777e-13
 70
     32
  0
VERTEX
  8
MY3DLAYER
10
0.25373586796150294
20
35.7544165362071
30
5.017989607531777e-13
 70
     32
  0
VERTEX
  8
MY3DLAYER
10
0.27982156699545735
20
35.75098228877797
30
5.017989607531777e-13
 70
     32
  0
VERTEX
  8
MY3DLAYER
10
0.30590726602941176
20
35.7544165362071
30
5.017989607531777e-13
 70
     32
  0
SEQEND
  0
POLYLINE
 8
Component#46
 66
     1
70
    8
 10
0.0
 20
 0.0
 30
0.0
  0
VERTEX
  8
MY3DLAYER
10
1.238779826493687
20
33.66875923132683
30
5.017989607531777e-13
 70
     32
  0
VERTEX
  8
MY3DLAYER
10
1.2010084471299378
20
33.62666738848626
30
5.017989607531777e-13
 70
     32
  0
VERTEX
  8
MY3DLAYER
10
1.1616203732168127
20
33.58608438753549
30
5.017989607531777e-13
 70
     32
  0
VERTEX
  8
MY3DLAYER
10
1.1206758285159628
20
33.54707227926133
30
5.017989607531777e-13
 70
     32
  0
VERTEX
  8
MY3DLAYER
10
1.0782374166090287
20
33.509690712579705
30
5.017989607531777e-13
 70
     32
  0
VERTEX
  8
MY3DLAYER
10
1.0343700251777261
20
33.47399684333345
30
5.017989607531777e-13
 70
     32
  0
VERTEX
  8
MY3DLAYER
10
0.989140726791581
20
33.44004524690188
30
5.017989607531777e-13
 70
     32
  0
VERTEX
  8
MY3DLAYER
10
0.9426186763549822
20
33.407887834755854
30
5.017989607531777e-13
 70
     32
  0
VERTEX
  8
MY3DLAYER
10
0.8948750053704035
20
33.37757377508593
30
5.017989607531777e-13
 70
     32
  0
VERTEX
  8
MY3DLAYER
10
0.11180016799137338
20
32.90159594104609
30
5.017989607531777e-13
 70
     32
  0
VERTEX
  8
MY3DLAYER
10
0.07618865464361324
20
32.88436039328329
30
5.017989607531777e-13
 70
     32
  0
VERTEX
  8
MY3DLAYER
10
0.03795472053874693
20
32.87419130913249
30
5.017989607531777e-13
 70
     32
  0
VERTEX
  8
MY3DLAYER
10
-0.0015138978262116964
20
32.871457785040285
30
5.017989607531777e-13
 70
     32
  0
VERTEX
  8
MY3DLAYER
10
-0.040784649931041805
20
32.87625903682731
30
5.017989607531777e-13
 70
     32
  0
VERTEX
  8
MY3DLAYER
10
-0.07843216699701028
20
32.888420798556965
30
5.017989607531777e-13
 70
     32
  0
VERTEX
  8
MY3DLAYER
10
-0.1130899970835122
20
32.90750164768106
30
5.017989607531777e-13
 70
     32
  0
VERTEX
  8
MY3DLAYER
10
-0.14350020174281441
20
32.932809026885174
30
5.017989607531777e-13
 70
     32
  0
VERTEX
  8
MY3DLAYER
10
-0.16855901407581841
20
32.9634243811059
30
5.017989607531777e-13
 70
     32
  0
VERTEX
  8
MY3DLAYER
10
-0.18735690098683477
20
32.99823649734841
30
5.017989607531777e-13
 70
     32
  0
VERTEX
  8
MY3DLAYER
10
-0.1992115755403514
20
33.03598183720423
30
5.017989607531777e-13
 70
     32
  0
VERTEX
  8
MY3DLAYER
10
-0.20369276120523594
20
33.07529039816286
30
5.017989607531777e-13
 70
     32
  0
VERTEX
  8
MY3DLAYER
10
-0.20063780914498208
20
33.11473543913775
30
5.017989607531777e-13
 70
     32
  0
VERTEX
  8
MY3DLAYER
10
-0.054033722918264804
20
33.95519281290769
30
5.017989607531777e-13
 70
     32
  0
VERTEX
  8
MY3DLAYER
10
-0.02978918964046251
20
34.325092910285
30
5.017989607531777e-13
 70
     32
  0
VERTEX
  8
MY3DLAYER
10
-0.05403372291826436
20
34.694993007662305
30
5.017989607531777e-13
 70
     32
  0
VERTEX
  8
MY3DLAYER
10
-0.12635249206543264
20
35.05856401181781
30
5.017989607531777e-13
 70
     32
  0
VERTEX
  8
MY3DLAYER
10
-0.2455081028913102
20
35.40958512206947
30
5.017989607531777e-13
 70
     32
  0
VERTEX
  8
MY3DLAYER
10
-0.40946176985849014
20
35.742050269899465
30
5.017989607531777e-13
 70
     32
  0
VERTEX
  8
MY3DLAYER
10
-0.6154082002686181
20
36.050270884451656
30
5.017989607531777e-13
 70
     32
  0
VERTEX
  8
MY3DLAYER
10
-0.8598235935982395
20
36.328973225556155
30
5.017989607531777e-13
 70
     32
  0
VERTEX
  8
MY3DLAYER
10
-1.138525934702737
20
36.57338861888577
30
5.017989607531777e-13
 70
     32
  0
VERTEX
  8
MY3DLAYER
10
-1.4467465492549207
20
36.7793350492959
30
5.017989607531777e-13
 70
     32
  0
VERTEX
  8
MY3DLAYER
10
-1.7792116970849108
20
36.94328871626308
30
5.017989607531777e-13
 70
     32
  0
VERTEX
  8
MY3DLAYER
10
-2.1302328073365793
20
37.06244432708897
30
5.017989607531777e-13
 70
     32
  0
VERTEX
  8
MY3DLAYER
10
-2.4938038114920813
20
37.13476309623614
30
5.017989607531777e-13
 70
     32
  0
VERTEX
  8
MY3DLAYER
10
-2.8637039088693887
20
37.159007629513944
30
5.017989607531777e-13
 70
     32
  0
VERTEX
  8
MY3DLAYER
10
-3.2336040062466997
20
37.13476309623614
30
5.017989607531777e-13
 70
     32
  0
VERTEX
  8
MY3DLAYER
10
-3.5971750104022
20
37.062444327088976
30
5.017989607531777e-13
 70
     32
  0
VERTEX
  8
MY3DLAYER
10
-3.9481961206538667
20
36.9432887162631
30
5.017989607531777e-13
 70
     32
  0
VERTEX
  8
MY3DLAYER
10
-4.280661268483855
20
36.779335049295916
30
5.017989607531777e-13
 70
     32
  0
VERTEX
  8
MY3DLAYER
10
-4.326078387016856
20
36.755692393856634
30
5.017989607531777e-13
 70
     32
  0
VERTEX
  8
MY3DLAYER
10
-4.373383272897372
20
36.73609806855841
30
5.017989607531777e-13
 70
     32
  0
VERTEX
  8
MY3DLAYER
10
-4.422215907380385
20
36.72070119804815
30
5.017989607531777e-13
 70
     32
  0
VERTEX
  8
MY3DLAYER
10
-4.472204644631527
20
36.709618961807315
30
5.017989607531777e-13
 70
     32
  0
VERTEX
  8
MY3DLAYER
10
-4.52296904017629
20
36.70293570234533
30
5.017989607531777e-13
 70
     32
  0
VERTEX
  8
MY3DLAYER
10
-4.5741227463122
20
36.70070228330217
30
5.017989607531777e-13
 70
     32
  0
VERTEX
  8
MY3DLAYER
10
-4.625276452448106
20
36.70293570234533
30
5.017989607531777e-13
 70
     32
  0
VERTEX
  8
MY3DLAYER
10
-4.659689639419619
20
36.708229579349585
30
5.017989607531777e-13
 70
     32
  0
VERTEX
  8
MY3DLAYER
10
-4.693118985694839
20
36.71796463861411
30
5.017989607531777e-13
 70
     32
  0
VERTEX
  8
MY3DLAYER
10
-4.724993901742482
20
36.731974717066
30
5.017989607531777e-13
 70
     32
  0
VERTEX
  8
MY3DLAYER
10
-4.754770329857762
20
36.750020683373414
30
5.017989607531777e-13
 70
     32
  0
VERTEX
  8
MY3DLAYER
10
-4.781940030423244
20
36.77179451956399
30
5.017989607531777e-13
 70
     32
  0
VERTEX
  8
MY3DLAYER
10
-4.806039256807968
20
36.79692457843639
30
5.017989607531777e-13
 70
     32
  0
VERTEX
  8
MY3DLAYER
10
-4.826656670836969
20
36.82498192702869
30
5.017989607531777e-13
 70
     32
  0
VERTEX
  8
MY3DLAYER
10
-4.843440363725956
20
36.85548766787005
30
5.017989607531777e-13
 70
     32
  0
VERTEX
  8
MY3DLAYER
10
-4.8561038626441535
20
36.887921113052776
30
5.017989607531777e-13
 70
     32
  0
VERTEX
  8
MY3DLAYER
10
-4.864431020382081
20
36.921728671605266
30
5.017989607531777e-13
 70
     32
  0
VERTEX
  8
MY3DLAYER
10
-4.868279704664954
20
36.95633329847168
30
5.017989607531777e-13
 70
     32
  0
VERTEX
  8
MY3DLAYER
10
-4.867584224140541
20
36.99114434381813
30
5.017989607531777e-13
 70
     32
  0
VERTEX
  8
MY3DLAYER
10
-4.867584224140528
20
39.00994601676877
30
5.017989607531777e-13
 70
     32
  0
VERTEX
  8
MY3DLAYER
10
-4.865468234782525
20
39.042229775775624
30
5.017989607531777e-13
 70
     32
  0
VERTEX
  8
MY3DLAYER
10
-4.859156471873102
20
39.073961150715114
30
5.017989607531777e-13
 70
     32
  0
VERTEX
  8
MY3DLAYER
10
-4.848756931425583
20
39.104597208964435
30
5.017989607531777e-13
 70
     32
  0
VERTEX
  8
MY3DLAYER
10
-4.834447552460323
20
39.13361375907302
30
5.017989607531777e-13
 70
     32
  0
VERTEX
  8
MY3DLAYER
10
-4.816473172418733
20
39.160514319823605
30
5.017989607531777e-13
 70
     32
  0
VERTEX
  8
MY3DLAYER
10
-4.795141337926759
20
39.1848386151635
30
5.017989607531777e-13
 70
     32
  0
VERTEX
  8
MY3DLAYER
10
-4.77081704258686
20
39.206170449655474
30
5.017989607531777e-13
 70
     32
  0
VERTEX
  8
MY3DLAYER
10
-4.743916481836277
20
39.22414482969707
30
5.017989607531777e-13
 70
     32
  0
VERTEX
  8
MY3DLAYER
10
-4.7148999317276905
20
39.238454208662326
30
5.017989607531777e-13
 70
     32
  0
VERTEX
  8
MY3DLAYER
10
-4.684263873478369
20
39.24885374910984
30
5.017989607531777e-13
 70
     32
  0
VERTEX
  8
MY3DLAYER
10
-4.652532498538878
20
39.25516551201927
30
5.017989607531777e-13
 70
     32
  0
VERTEX
  8
MY3DLAYER
10
-4.620248739532026
20
39.25728150137727
30
5.017989607531777e-13
 70
     32
  0
VERTEX
  8
MY3DLAYER
10
3.2112035763284292
20
39.25728150137723
30
5.017989607531777e-13
 70
     32
  0
VERTEX
  8
MY3DLAYER
10
3.2842112784467843
20
39.24283029667076
30
5.017989607531777e-13
 70
     32
  0
VERTEX
  8
MY3DLAYER
10
3.3549732362404474
20
39.21977151926869
30
5.017989607531777e-13
 70
     32
  0
VERTEX
  8
MY3DLAYER
10
3.4224784924388123
20
39.188434603790874
30
5.017989607531777e-13
 70
     32
  0
VERTEX
  8
MY3DLAYER
10
3.4857626174007788
20
39.14926725241414
30
5.017989607531777e-13
 70
     32
  0
VERTEX
  8
MY3DLAYER
10
3.5439214876645466
20
39.102829038670365
30
5.017989607531777e-13
 70
     32
  0
VERTEX
  8
MY3DLAYER
10
3.5961242029190275
20
39.04978341296824
30
5.017989607531777e-13
 70
     32
  0
VERTEX
  8
MY3DLAYER
10
3.641624956855612
20
38.990888224053755
30
5.017989607531777e-13
 70
     32
  0
VERTEX
  8
MY3DLAYER
10
3.679773692304535
20
38.92698489182672
30
5.017989607531777e-13
 70
     32
  0
VERTEX
  8
MY3DLAYER
10
3.710025388428763
20
38.858986386198445
30
5.017989607531777e-13
 70
     32
  0
VERTEX
  8
MY3DLAYER
10
3.731947847291743
20
38.787864183733454
30
5.017989607531777e-13
 70
     32
  0
VERTEX
  8
MY3DLAYER
10
3.7452278685543603
20
38.714634388422155
30
5.017989607531777e-13
 70
     32
  0
VERTEX
  8
MY3DLAYER
10
3.7496757240848932
20
38.64034321487341
30
5.017989607531777e-13
 70
     32
  0
VERTEX
  8
MY3DLAYER
10
3.7496757240848893
20
38.082459958938486
30
5.017989607531777e-13
 70
     32
  0
VERTEX
  8
MY3DLAYER
10
3.7481699642903745
20
38.01740234100299
30
5.017989607531777e-13
 70
     32
  0
VERTEX
  8
MY3DLAYER
10
3.743655909672635
20
37.95248405178564
30
5.017989607531777e-13
 70
     32
  0
VERTEX
  8
MY3DLAYER
10
3.736143227622882
20
37.88784412161536
30
5.017989607531777e-13
 70
     32
  0
VERTEX
  8
MY3DLAYER
10
3.725648007453832
20
37.82362098468168
30
5.017989607531777e-13
 70
     32
  0
VERTEX
  8
MY3DLAYER
10
3.7121927259425225
20
37.75995218256125
30
5.017989607531777e-13
 70
     32
  0
VERTEX
  8
MY3DLAYER
10
3.69580619919358
20
37.69697406965601
30
5.017989607531777e-13
 70
     32
  0
VERTEX
  8
MY3DLAYER
10
3.676523520926068
20
37.63482152117382
30
5.017989607531777e-13
 70
     32
  0
VERTEX
  8
MY3DLAYER
10
3.654385987316062
20
37.57362764427698
30
5.017989607531777e-13
 70
     32
  0
VERTEX
  8
MY3DLAYER
10
3.6294410085559248
20
37.513523493017225
30
5.017989607531777e-13
 70
     32
  0
VERTEX
  8
MY3DLAYER
10
3.6017420073196598
20
37.454637787667686
30
5.017989607531777e-13
 70
     32
  0
VERTEX
  8
MY3DLAYER
10
3.571348304351846
20
37.39709663905295
30
5.017989607531777e-13
 70
     32
  0
VERTEX
  8
MY3DLAYER
10
3.538324991425103
20
37.34102327846753
30
5.017989607531777e-13
 70
     32
  0
VERTEX
  8
MY3DLAYER
10
1.372582266569217
20
33.85089535091274
30
5.017989607531777e-13
 70
     32
  0
VERTEX
  8
MY3DLAYER
10
1.3418291640859157
20
33.80343329216675
30
5.017989607531777e-13
 70
     32
  0
VERTEX
  8
MY3DLAYER
10
1.3092440543341604
20
33.75720980295162
30
5.017989607531777e-13
 70
     32
  0
VERTEX
  8
MY3DLAYER
10
1.274876759447606
20
33.71229555827428
30
5.017989607531777e-13
 70
     32
  0
VERTEX
  8
MY3DLAYER
10
1.238779826493687
20
33.66875923132683
30
5.017989607531777e-13
 70
     32
  0
SEQEND
  0
POLYLINE
 8
Component#46
 66
     1
70
    8
 10
0.0
 20
 0.0
 30
0.0
  0
VERTEX
  8
MY3DLAYER
10
-4.111725866801558
20
37.93141712097602
30
5.017989607531777e-13
 70
     32
  0
VERTEX
  8
MY3DLAYER
10
-4.079191345639785
20
37.973816934447285
30
5.017989607531777e-13
 70
     32
  0
VERTEX
  8
MY3DLAYER
10
-4.058739290638838
20
38.023192563008976
30
5.017989607531777e-13
 70
     32
  0
VERTEX
  8
MY3DLAYER
10
-4.051763475548411
20
38.07617913917169
30
5.017989607531777e-13
 70
     32
  0
VERTEX
  8
MY3DLAYER
10
-4.058739290638836
20
38.129165715334416
30
5.017989607531777e-13
 70
     32
  0
VERTEX
  8
MY3DLAYER
10
-4.079191345639784
20
38.17854134389611
30
5.017989607531777e-13
 70
     32
  0
VERTEX
  8
MY3DLAYER
10
-4.1117258668015575
20
38.22094115736736
30
5.017989607531777e-13
 70
     32
  0
VERTEX
  8
MY3DLAYER
10
-4.15412568027282
20
38.25347567852914
30
5.017989607531777e-13
 70
     32
  0
VERTEX
  8
MY3DLAYER
10
-4.203501308834506
20
38.27392773353009
30
5.017989607531777e-13
 70
     32
  0
VERTEX
  8
MY3DLAYER
10
-4.256487884997228
20
38.280903548620515
30
5.017989607531777e-13
 70
     32
  0
VERTEX
  8
MY3DLAYER
10
-4.3094744611599465
20
38.27392773353009
30
5.017989607531777e-13
 70
     32
  0
VERTEX
  8
MY3DLAYER
10
-4.358850089721636
20
38.25347567852914
30
5.017989607531777e-13
 70
     32
  0
VERTEX
  8
MY3DLAYER
10
-4.401249903192897
20
38.22094115736737
30
5.017989607531777e-13
 70
     32
  0
VERTEX
  8
MY3DLAYER
10
-4.4337844243546725
20
38.17854134389611
30
5.017989607531777e-13
 70
     32
  0
VERTEX
  8
MY3DLAYER
10
-4.454236479355619
20
38.129165715334416
30
5.017989607531777e-13
 70
     32
  0
VERTEX
  8
MY3DLAYER
10
-4.461212294446047
20
38.0761791391717
30
5.017989607531777e-13
 70
     32
  0
VERTEX
  8
MY3DLAYER
10
-4.454236479355619
20
38.023192563008976
30
5.017989607531777e-13
 70
     32
  0
VERTEX
  8
MY3DLAYER
10
-4.433784424354674
20
37.973816934447285
30
5.017989607531777e-13
 70
     32
  0
VERTEX
  8
MY3DLAYER
10
-4.401249903192901
20
37.93141712097603
30
5.017989607531777e-13
 70
     32
  0
VERTEX
  8
MY3DLAYER
10
-4.358850089721641
20
37.89888259981425
30
5.017989607531777e-13
 70
     32
  0
VERTEX
  8
MY3DLAYER
10
-4.30947446115995
20
37.878430544813305
30
5.017989607531777e-13
 70
     32
  0
VERTEX
  8
MY3DLAYER
10
-4.256487884997228
20
37.87145472972288
30
5.017989607531777e-13
 70
     32
  0
VERTEX
  8
MY3DLAYER
10
-4.203501308834508
20
37.878430544813305
30
5.017989607531777e-13
 70
     32
  0
VERTEX
  8
MY3DLAYER
10
-4.154125680272823
20
37.89888259981425
30
5.017989607531777e-13
 70
     32
  0
VERTEX
  8
MY3DLAYER
10
-4.111725866801558
20
37.93141712097602
30
5.017989607531777e-13
 70
     32
  0
SEQEND
  0
POLYLINE
 8
Component#46
 66
     1
70
    8
 10
0.0
 20
 0.0
 30
0.0
  0
VERTEX
  8
MY3DLAYER
10
0.5123451648985373
20
34.017124021061434
30
5.017989607531777e-13
 70
     32
  0
VERTEX
  8
MY3DLAYER
10
0.5448796860603102
20
33.97472420759017
30
5.017989607531777e-13
 70
     32
  0
VERTEX
  8
MY3DLAYER
10
0.5872794995315718
20
33.9421896864284
30
5.017989607531777e-13
 70
     32
  0
VERTEX
  8
MY3DLAYER
10
0.6366551280932611
20
33.92173763142745
30
5.017989607531777e-13
 70
     32
  0
VERTEX
  8
MY3DLAYER
10
0.689641704255981
20
33.91476181633702
30
5.017989607531777e-13
 70
     32
  0
VERTEX
  8
MY3DLAYER
10
0.7426282804187028
20
33.92173763142745
30
5.017989607531777e-13
 70
     32
  0
VERTEX
  8
MY3DLAYER
10
0.7920039089803903
20
33.9421896864284
30
5.017989607531777e-13
 70
     32
  0
VERTEX
  8
MY3DLAYER
10
0.8344037224516518
20
33.97472420759017
30
5.017989607531777e-13
 70
     32
  0
VERTEX
  8
MY3DLAYER
10
0.8669382436134256
20
34.017124021061434
30
5.017989607531777e-13
 70
     32
  0
VERTEX
  8
MY3DLAYER
10
0.8873902986143722
20
34.06649964962312
30
5.017989607531777e-13
 70
     32
  0
VERTEX
  8
MY3DLAYER
10
0.8943661137048022
20
34.11948622578584
30
5.017989607531777e-13
 70
     32
  0
VERTEX
  8
MY3DLAYER
10
0.8873902986143749
20
34.172472801948565
30
5.017989607531777e-13
 70
     32
  0
VERTEX
  8
MY3DLAYER
10
0.8669382436134283
20
34.22184843051025
30
5.017989607531777e-13
 70
     32
  0
VERTEX
  8
MY3DLAYER
10
0.8344037224516536
20
34.26424824398151
30
5.017989607531777e-13
 70
     32
  0
VERTEX
  8
MY3DLAYER
10
0.7920039089803921
20
34.296782765143284
30
5.017989607531777e-13
 70
     32
  0
VERTEX
  8
MY3DLAYER
10
0.7426282804187028
20
34.317234820144236
30
5.017989607531777e-13
 70
     32
  0
VERTEX
  8
MY3DLAYER
10
0.6896417042559833
20
34.324210635234664
30
5.017989607531777e-13
 70
     32
  0
VERTEX
  8
MY3DLAYER
10
0.6366551280932611
20
34.317234820144236
30
5.017989607531777e-13
 70
     32
  0
VERTEX
  8
MY3DLAYER
10
0.5872794995315735
20
34.296782765143284
30
5.017989607531777e-13
 70
     32
  0
VERTEX
  8
MY3DLAYER
10
0.544879686060312
20
34.26424824398151
30
5.017989607531777e-13
 70
     32
  0
VERTEX
  8
MY3DLAYER
10
0.51234516489854
20
34.22184843051025
30
5.017989607531777e-13
 70
     32
  0
VERTEX
  8
MY3DLAYER
10
0.49189310989758983
20
34.172472801948565
30
5.017989607531777e-13
 70
     32
  0
VERTEX
  8
MY3DLAYER
10
0.48491729480716517
20
34.11948622578584
30
5.017989607531777e-13
 70
     32
  0
VERTEX
  8
MY3DLAYER
10
0.49189310989758894
20
34.066499649623125
30
5.017989607531777e-13
 70
     32
  0
VERTEX
  8
MY3DLAYER
10
0.5123451648985373
20
34.017124021061434
30
5.017989607531777e-13
 70
     32
  0
SEQEND
  0
POLYLINE
 8
Component#46
 66
     1
70
    8
 10
0.0
 20
 0.0
 30
0.0
  0
VERTEX
  8
MY3DLAYER
10
-4.203501308834506
20
38.665832119616454
30
5.017989607531777e-13
 70
     32
  0
VERTEX
  8
MY3DLAYER
10
-4.154125680272816
20
38.6862841746174
30
5.017989607531777e-13
 70
     32
  0
VERTEX
  8
MY3DLAYER
10
-4.111725866801555
20
38.71881869577917
30
5.017989607531777e-13
 70
     32
  0
VERTEX
  8
MY3DLAYER
10
-4.079191345639781
20
38.76121850925043
30
5.017989607531777e-13
 70
     32
  0
VERTEX
  8
MY3DLAYER
10
-4.058739290638832
20
38.810594137812124
30
5.017989607531777e-13
 70
     32
  0
VERTEX
  8
MY3DLAYER
10
-4.051763475548406
20
38.86358071397485
30
5.017989607531777e-13
 70
     32
  0
VERTEX
  8
MY3DLAYER
10
-4.058739290638831
20
38.916567290137564
30
5.017989607531777e-13
 70
     32
  0
VERTEX
  8
MY3DLAYER
10
-4.079191345639778
20
38.965942918699255
30
5.017989607531777e-13
 70
     32
  0
VERTEX
  8
MY3DLAYER
10
-4.111725866801553
20
39.00834273217052
30
5.017989607531777e-13
 70
     32
  0
VERTEX
  8
MY3DLAYER
10
-4.154125680272815
20
39.04087725333229
30
5.017989607531777e-13
 70
     32
  0
VERTEX
  8
MY3DLAYER
10
-4.203501308834502
20
39.061329308333235
30
5.017989607531777e-13
 70
     32
  0
VERTEX
  8
MY3DLAYER
10
-4.256487884997223
20
39.06830512342366
30
5.017989607531777e-13
 70
     32
  0
VERTEX
  8
MY3DLAYER
10
-4.309474461159941
20
39.06132930833324
30
5.017989607531777e-13
 70
     32
  0
VERTEX
  8
MY3DLAYER
10
-4.358850089721632
20
39.04087725333229
30
5.017989607531777e-13
 70
     32
  0
VERTEX
  8
MY3DLAYER
10
-4.401249903192892
20
39.00834273217052
30
5.017989607531777e-13
 70
     32
  0
VERTEX
  8
MY3DLAYER
10
-4.433784424354669
20
38.965942918699255
30
5.017989607531777e-13
 70
     32
  0
VERTEX
  8
MY3DLAYER
10
-4.4542364793556155
20
38.916567290137564
30
5.017989607531777e-13
 70
     32
  0
VERTEX
  8
MY3DLAYER
10
-4.4612122944460415
20
38.86358071397485
30
5.017989607531777e-13
 70
     32
  0
VERTEX
  8
MY3DLAYER
10
-4.454236479355614
20
38.810594137812124
30
5.017989607531777e-13
 70
     32
  0
VERTEX
  8
MY3DLAYER
10
-4.433784424354667
20
38.76121850925044
30
5.017989607531777e-13
 70
     32
  0
VERTEX
  8
MY3DLAYER
10
-4.4012499031928956
20
38.71881869577918
30
5.017989607531777e-13
 70
     32
  0
VERTEX
  8
MY3DLAYER
10
-4.358850089721634
20
38.686284174617406
30
5.017989607531777e-13
 70
     32
  0
VERTEX
  8
MY3DLAYER
10
-4.309474461159945
20
38.665832119616454
30
5.017989607531777e-13
 70
     32
  0
VERTEX
  8
MY3DLAYER
10
-4.256487884997225
20
38.658856304526026
30
5.017989607531777e-13
 70
     32
  0
VERTEX
  8
MY3DLAYER
10
-4.203501308834506
20
38.665832119616454
30
5.017989607531777e-13
 70
     32
  0
SEQEND
  0
POLYLINE
 8
Component#46
 66
     1
70
    8
 10
0.0
 20
 0.0
 30
0.0
  0
VERTEX
  8
MY3DLAYER
10
0.47757016135385255
20
35.90475626651549
30
5.017989607531777e-13
 70
     32
  0
VERTEX
  8
MY3DLAYER
10
0.4571181063529042
20
35.95413189507718
30
5.017989607531777e-13
 70
     32
  0
VERTEX
  8
MY3DLAYER
10
0.42458358519113126
20
35.996531708548446
30
5.017989607531777e-13
 70
     32
  0
VERTEX
  8
MY3DLAYER
10
0.3821837717198697
20
36.02906622971022
30
5.017989607531777e-13
 70
     32
  0
VERTEX
  8
MY3DLAYER
10
0.3328081431581804
20
36.04951828471117
30
5.017989607531777e-13
 70
     32
  0
VERTEX
  8
MY3DLAYER
10
0.27982156699546046
20
36.05649409980159
30
5.017989607531777e-13
 70
     32
  0
VERTEX
  8
MY3DLAYER
10
0.22683499083273873
20
36.04951828471117
30
5.017989607531777e-13
 70
     32
  0
VERTEX
  8
MY3DLAYER
10
0.1774593622710512
20
36.02906622971022
30
5.017989607531777e-13
 70
     32
  0
VERTEX
  8
MY3DLAYER
10
0.13505954879978965
20
35.996531708548446
30
5.017989607531777e-13
 70
     32
  0
VERTEX
  8
MY3DLAYER
10
0.10252502763801763
20
35.95413189507718
30
5.017989607531777e-13
 70
     32
  0
VERTEX
  8
MY3DLAYER
10
0.08207297263706748
20
35.90475626651549
30
5.017989607531777e-13
 70
     32
  0
VERTEX
  8
MY3DLAYER
10
0.07509715754664281
20
35.851769690352775
30
5.017989607531777e-13
 70
     32
  0
VERTEX
  8
MY3DLAYER
10
0.08207297263706659
20
35.79878311419005
30
5.017989607531777e-13
 70
     32
  0
VERTEX
  8
MY3DLAYER
10
0.10252502763801496
20
35.74940748562837
30
5.017989607531777e-13
 70
     32
  0
VERTEX
  8
MY3DLAYER
10
0.13505954879978788
20
35.707007672157104
30
5.017989607531777e-13
 70
     32
  0
VERTEX
  8
MY3DLAYER
10
0.17745936227104941
20
35.67447315099533
30
5.017989607531777e-13
 70
     32
  0
VERTEX
  8
MY3DLAYER
10
0.22683499083273873
20
35.65402109599438
30
5.017989607531777e-13
 70
     32
  0
VERTEX
  8
MY3DLAYER
10
0.2798215669954587
20
35.64704528090396
30
5.017989607531777e-13
 70
     32
  0
VERTEX
  8
MY3DLAYER
10
0.3328081431581804
20
35.65402109599438
30
5.017989607531777e-13
 70
     32
  0
VERTEX
  8
MY3DLAYER
10
0.38218377171986795
20
35.67447315099533
30
5.017989607531777e-13
 70
     32
  0
VERTEX
  8
MY3DLAYER
10
0.4245835851911295
20
35.707007672157104
30
5.017989607531777e-13
 70
     32
  0
VERTEX
  8
MY3DLAYER
10
0.4571181063529033
20
35.74940748562837
30
5.017989607531777e-13
 70
     32
  0
VERTEX
  8
MY3DLAYER
10
0.4775701613538499
20
35.79878311419005
30
5.017989607531777e-13
 70
     32
  0
VERTEX
  8
MY3DLAYER
10
0.4845459764442781
20
35.851769690352775
30
5.017989607531777e-13
 70
     32
  0
VERTEX
  8
MY3DLAYER
10
0.47757016135385255
20
35.90475626651549
30
5.017989607531777e-13
 70
     32
  0
SEQEND
  0
POLYLINE
 8
Component#46
 66
     1
70
    8
 10
0.0
 20
 0.0
 30
0.0
  0
VERTEX
  8
MY3DLAYER
10
1.7089554252631811
20
35.79271457224253
30
5.017989607531777e-13
 70
     32
  0
VERTEX
  8
MY3DLAYER
10
1.7159312403536071
20
35.73972799607981
30
5.017989607531777e-13
 70
     32
  0
VERTEX
  8
MY3DLAYER
10
1.736383295354555
20
35.690352367518116
30
5.017989607531777e-13
 70
     32
  0
VERTEX
  8
MY3DLAYER
10
1.7689178165163264
20
35.64795255404685
30
5.017989607531777e-13
 70
     32
  0
VERTEX
  8
MY3DLAYER
10
1.8113176299875877
20
35.61541803288508
30
5.017989607531777e-13
 70
     32
  0
VERTEX
  8
MY3DLAYER
10
1.8606932585492761
20
35.59496597788413
30
5.017989607531777e-13
 70
     32
  0
VERTEX
  8
MY3DLAYER
10
1.913679834711997
20
35.58799016279371
30
5.017989607531777e-13
 70
     32
  0
VERTEX
  8
MY3DLAYER
10
1.9666664108747178
20
35.59496597788414
30
5.017989607531777e-13
 70
     32
  0
VERTEX
  8
MY3DLAYER
10
2.0160420394364054
20
35.61541803288508
30
5.017989607531777e-13
 70
     32
  0
VERTEX
  8
MY3DLAYER
10
2.0584418529076682
20
35.64795255404685
30
5.017989607531777e-13
 70
     32
  0
VERTEX
  8
MY3DLAYER
10
2.0909763740694407
20
35.690352367518116
30
5.017989607531777e-13
 70
     32
  0
VERTEX
  8
MY3DLAYER
10
2.111428429070389
20
35.73972799607981
30
5.017989607531777e-13
 70
     32
  0
VERTEX
  8
MY3DLAYER
10
2.118404244160816
20
35.792714572242524
30
5.017989607531777e-13
 70
     32
  0
VERTEX
  8
MY3DLAYER
10
2.11142842907039
20
35.84570114840525
30
5.017989607531777e-13
 70
     32
  0
VERTEX
  8
MY3DLAYER
10
2.0909763740694416
20
35.89507677696693
30
5.017989607531777e-13
 70
     32
  0
VERTEX
  8
MY3DLAYER
10
2.0584418529076696
20
35.937476590438195
30
5.017989607531777e-13
 70
     32
  0
VERTEX
  8
MY3DLAYER
10
2.0160420394364085
20
35.970011111599966
30
5.017989607531777e-13
 70
     32
  0
VERTEX
  8
MY3DLAYER
10
1.9666664108747198
20
35.99046316660092
30
5.017989607531777e-13
 70
     32
  0
VERTEX
  8
MY3DLAYER
10
1.9136798347119992
20
35.997438981691346
30
5.017989607531777e-13
 70
     32
  0
VERTEX
  8
MY3DLAYER
10
1.8606932585492781
20
35.99046316660092
30
5.017989607531777e-13
 70
     32
  0
VERTEX
  8
MY3DLAYER
10
1.811317629987588
20
35.97001111159997
30
5.017989607531777e-13
 70
     32
  0
VERTEX
  8
MY3DLAYER
10
1.768917816516328
20
35.937476590438195
30
5.017989607531777e-13
 70
     32
  0
VERTEX
  8
MY3DLAYER
10
1.7363832953545546
20
35.89507677696694
30
5.017989607531777e-13
 70
     32
  0
VERTEX
  8
MY3DLAYER
10
1.7159312403536058
20
35.84570114840525
30
5.017989607531777e-13
 70
     32
  0
VERTEX
  8
MY3DLAYER
10
1.7089554252631811
20
35.79271457224253
30
5.017989607531777e-13
 70
     32
  0
SEQEND
  0
POLYLINE
 8
Component#46
 66
     1
70
    8
 10
0.0
 20
 0.0
 30
0.0
  0
VERTEX
  8
MY3DLAYER
10
-0.266493434818754
20
39.061329308333214
30
5.017989607531777e-13
 70
     32
  0
VERTEX
  8
MY3DLAYER
10
-0.31948001098147394
20
39.06830512342364
30
5.017989607531777e-13
 70
     32
  0
VERTEX
  8
MY3DLAYER
10
-0.37246658714419567
20
39.06132930833322
30
5.017989607531777e-13
 70
     32
  0
VERTEX
  8
MY3DLAYER
10
-0.421842215705885
20
39.04087725333227
30
5.017989607531777e-13
 70
     32
  0
VERTEX
  8
MY3DLAYER
10
-0.46424202917714474
20
39.0083427321705
30
5.017989607531777e-13
 70
     32
  0
VERTEX
  8
MY3DLAYER
10
-0.4967765503389181
20
38.965942918699234
30
5.017989607531777e-13
 70
     32
  0
VERTEX
  8
MY3DLAYER
10
-0.5172286053398647
20
38.91656729013755
30
5.017989607531777e-13
 70
     32
  0
VERTEX
  8
MY3DLAYER
10
-0.5242044204302951
20
38.86358071397483
30
5.017989607531777e-13
 70
     32
  0
VERTEX
  8
MY3DLAYER
10
-0.5172286053398674
20
38.8105941378121
30
5.017989607531777e-13
 70
     32
  0
VERTEX
  8
MY3DLAYER
10
-0.49677655033892076
20
38.76121850925042
30
5.017989607531777e-13
 70
     32
  0
VERTEX
  8
MY3DLAYER
10
-0.4642420291771465
20
38.718818695779156
30
5.017989607531777e-13
 70
     32
  0
VERTEX
  8
MY3DLAYER
10
-0.42184221570588676
20
38.686284174617384
30
5.017989607531777e-13
 70
     32
  0
VERTEX
  8
MY3DLAYER
10
-0.37246658714419567
20
38.66583211961643
30
5.017989607531777e-13
 70
     32
  0
VERTEX
  8
MY3DLAYER
10
-0.3194800109814757
20
38.658856304526005
30
5.017989607531777e-13
 70
     32
  0
VERTEX
  8
MY3DLAYER
10
-0.26649343481875576
20
38.66583211961643
30
5.017989607531777e-13
 70
     32
  0
VERTEX
  8
MY3DLAYER
10
-0.21711780625706822
20
38.686284174617384
30
5.017989607531777e-13
 70
     32
  0
VERTEX
  8
MY3DLAYER
10
-0.17471799278580624
20
38.71881869577915
30
5.017989607531777e-13
 70
     32
  0
VERTEX
  8
MY3DLAYER
10
-0.1421834716240329
20
38.76121850925041
30
5.017989607531777e-13
 70
     32
  0
VERTEX
  8
MY3DLAYER
10
-0.12173141662308407
20
38.8105941378121
30
5.017989607531777e-13
 70
     32
  0
VERTEX
  8
MY3DLAYER
10
-0.11475560153265807
20
38.86358071397483
30
5.017989607531777e-13
 70
     32
  0
VERTEX
  8
MY3DLAYER
10
-0.12173141662308362
20
38.91656729013754
30
5.017989607531777e-13
 70
     32
  0
VERTEX
  8
MY3DLAYER
10
-0.14218347162403155
20
38.965942918699234
30
5.017989607531777e-13
 70
     32
  0
VERTEX
  8
MY3DLAYER
10
-0.1747179927858049
20
39.0083427321705
30
5.017989607531777e-13
 70
     32
  0
VERTEX
  8
MY3DLAYER
10
-0.217117806257066
20
39.04087725333227
30
5.017989607531777e-13
 70
     32
  0
VERTEX
  8
MY3DLAYER
10
-0.266493434818754
20
39.061329308333214
30
5.017989607531777e-13
 70
     32
  0
SEQEND
  0
POLYLINE
 8
Component#46
 66
     1
70
    8
 10
0.0
 20
 0.0
 30
0.0
  0
VERTEX
  8
MY3DLAYER
10
-0.51722860533987
20
38.023192563008955
30
5.017989607531777e-13
 70
     32
  0
VERTEX
  8
MY3DLAYER
10
-0.49677655033892343
20
37.97381693444727
30
5.017989607531777e-13
 70
     32
  0
VERTEX
  8
MY3DLAYER
10
-0.46424202917715185
20
37.93141712097601
30
5.017989607531777e-13
 70
     32
  0
VERTEX
  8
MY3DLAYER
10
-0.4218422157058912
20
37.89888259981423
30
5.017989607531777e-13
 70
     32
  0
VERTEX
  8
MY3DLAYER
10
-0.3724665871442001
20
37.878430544813284
30
5.017989607531777e-13
 70
     32
  0
VERTEX
  8
MY3DLAYER
10
-0.31948001098148193
20
37.871454729722856
30
5.017989607531777e-13
 70
     32
  0
VERTEX
  8
MY3DLAYER
10
-0.2664934348187584
20
37.878430544813284
30
5.017989607531777e-13
 70
     32
  0
VERTEX
  8
MY3DLAYER
10
-0.21711780625707222
20
37.89888259981423
30
5.017989607531777e-13
 70
     32
  0
VERTEX
  8
MY3DLAYER
10
-0.17471799278581068
20
37.93141712097601
30
5.017989607531777e-13
 70
     32
  0
VERTEX
  8
MY3DLAYER
10
-0.14218347162403688
20
37.973816934447264
30
5.017989607531777e-13
 70
     32
  0
VERTEX
  8
MY3DLAYER
10
-0.1217314166230885
20
38.023192563008955
30
5.017989607531777e-13
 70
     32
  0
VERTEX
  8
MY3DLAYER
10
-0.11475560153266207
20
38.07617913917167
30
5.017989607531777e-13
 70
     32
  0
VERTEX
  8
MY3DLAYER
10
-0.12173141662308762
20
38.129165715334395
30
5.017989607531777e-13
 70
     32
  0
VERTEX
  8
MY3DLAYER
10
-0.14218347162403422
20
38.178541343896086
30
5.017989607531777e-13
 70
     32
  0
VERTEX
  8
MY3DLAYER
10
-0.1747179927858089
20
38.22094115736735
30
5.017989607531777e-13
 70
     32
  0
VERTEX
  8
MY3DLAYER
10
-0.21711780625707044
20
38.25347567852912
30
5.017989607531777e-13
 70
     32
  0
VERTEX
  8
MY3DLAYER
10
-0.26649343481875754
20
38.273927733530066
30
5.017989607531777e-13
 70
     32
  0
VERTEX
  8
MY3DLAYER
10
-0.31948001098147927
20
38.28090354862049
30
5.017989607531777e-13
 70
     32
  0
VERTEX
  8
MY3DLAYER
10
-0.37246658714419745
20
38.273927733530066
30
5.017989607531777e-13
 70
     32
  0
VERTEX
  8
MY3DLAYER
10
-0.42184221570588853
20
38.25347567852912
30
5.017989607531777e-13
 70
     32
  0
VERTEX
  8
MY3DLAYER
10
-0.46424202917715096
20
38.22094115736735
30
5.017989607531777e-13
 70
     32
  0
VERTEX
  8
MY3DLAYER
10
-0.49677655033892254
20
38.178541343896086
30
5.017989607531777e-13
 70
     32
  0
VERTEX
  8
MY3DLAYER
10
-0.5172286053398691
20
38.129165715334395
30
5.017989607531777e-13
 70
     32
  0
VERTEX
  8
MY3DLAYER
10
-0.5242044204302978
20
38.07617913917168
30
5.017989607531777e-13
 70
     32
  0
VERTEX
  8
MY3DLAYER
10
-0.51722860533987
20
38.023192563008955
30
5.017989607531777e-13
 70
     32
  0
SEQEND
  0
POLYLINE
 8
Component#46
 66
     1
70
    8
 10
0.0
 20
 0.0
 30
0.0
  0
VERTEX
  8
MY3DLAYER
10
-0.49677655033892343
20
37.97381693444727
30
5.017989607531777e-13
 70
     32
  0
VERTEX
  8
MY3DLAYER
10
-0.51722860533987
20
38.023192563008955
30
5.017989607531777e-13
 70
     32
  0
VERTEX
  8
MY3DLAYER
10
-0.5242044204302978
20
38.07617913917168
30
5.017989607531777e-13
 70
     32
  0
VERTEX
  8
MY3DLAYER
10
-0.5172286053398691
20
38.129165715334395
30
5.017989607531777e-13
 70
     32
  0
VERTEX
  8
MY3DLAYER
10
-0.49677655033892254
20
38.178541343896086
30
5.017989607531777e-13
 70
     32
  0
VERTEX
  8
MY3DLAYER
10
-0.46424202917715096
20
38.22094115736735
30
5.017989607531777e-13
 70
     32
  0
VERTEX
  8
MY3DLAYER
10
-0.42184221570588853
20
38.25347567852912
30
5.017989607531777e-13
 70
     32
  0
VERTEX
  8
MY3DLAYER
10
-0.37246658714419745
20
38.273927733530066
30
5.017989607531777e-13
 70
     32
  0
VERTEX
  8
MY3DLAYER
10
-0.31948001098147927
20
38.28090354862049
30
5.017989607531777e-13
 70
     32
  0
VERTEX
  8
MY3DLAYER
10
-0.26649343481875754
20
38.273927733530066
30
5.017989607531777e-13
 70
     32
  0
VERTEX
  8
MY3DLAYER
10
-0.21711780625707044
20
38.25347567852912
30
5.017989607531777e-13
 70
     32
  0
VERTEX
  8
MY3DLAYER
10
-0.1747179927858089
20
38.22094115736735
30
5.017989607531777e-13
 70
     32
  0
VERTEX
  8
MY3DLAYER
10
-0.14218347162403422
20
38.178541343896086
30
5.017989607531777e-13
 70
     32
  0
VERTEX
  8
MY3DLAYER
10
-0.12173141662308762
20
38.129165715334395
30
5.017989607531777e-13
 70
     32
  0
VERTEX
  8
MY3DLAYER
10
-0.11475560153266207
20
38.07617913917167
30
5.017989607531777e-13
 70
     32
  0
VERTEX
  8
MY3DLAYER
10
-0.1217314166230885
20
38.023192563008955
30
5.017989607531777e-13
 70
     32
  0
VERTEX
  8
MY3DLAYER
10
-0.14218347162403688
20
37.973816934447264
30
5.017989607531777e-13
 70
     32
  0
VERTEX
  8
MY3DLAYER
10
-0.17471799278581068
20
37.93141712097601
30
5.017989607531777e-13
 70
     32
  0
VERTEX
  8
MY3DLAYER
10
-0.21711780625707222
20
37.89888259981423
30
5.017989607531777e-13
 70
     32
  0
VERTEX
  8
MY3DLAYER
10
-0.2664934348187584
20
37.878430544813284
30
5.017989607531777e-13
 70
     32
  0
VERTEX
  8
MY3DLAYER
10
-0.31948001098148193
20
37.871454729722856
30
5.017989607531777e-13
 70
     32
  0
VERTEX
  8
MY3DLAYER
10
-0.3724665871442001
20
37.878430544813284
30
5.017989607531777e-13
 70
     32
  0
VERTEX
  8
MY3DLAYER
10
-0.4218422157058912
20
37.89888259981423
30
5.017989607531777e-13
 70
     32
  0
VERTEX
  8
MY3DLAYER
10
-0.46424202917715185
20
37.93141712097601
30
5.017989607531777e-13
 70
     32
  0
VERTEX
  8
MY3DLAYER
10
-0.49677655033892343
20
37.97381693444727
30
5.017989607531777e-13
 70
     32
  0
SEQEND
  0
POLYLINE
 8
Component#46
 66
     1
70
    8
 10
0.0
 20
 0.0
 30
0.0
  0
VERTEX
  8
MY3DLAYER
10
-0.24821255586976587
20
38.14744659428339
30
5.017989607531777e-13
 70
     32
  0
VERTEX
  8
MY3DLAYER
10
-0.2690863101940808
20
38.163463589316876
30
5.017989607531777e-13
 70
     32
  0
VERTEX
  8
MY3DLAYER
10
-0.2933943119475275
20
38.17353229331734
30
5.017989607531777e-13
 70
     32
  0
VERTEX
  8
MY3DLAYER
10
-0.31948001098148193
20
38.17696654074648
30
5.017989607531777e-13
 70
     32
  0
VERTEX
  8
MY3DLAYER
10
-0.34556571001543634
20
38.17353229331734
30
5.017989607531777e-13
 70
     32
  0
VERTEX
  8
MY3DLAYER
10
-0.36987371176888484
20
38.163463589316876
30
5.017989607531777e-13
 70
     32
  0
VERTEX
  8
MY3DLAYER
10
-0.390747466093198
20
38.14744659428339
30
5.017989607531777e-13
 70
     32
  0
VERTEX
  8
MY3DLAYER
10
-0.40676446112668696
20
38.126572839959074
30
5.017989607531777e-13
 70
     32
  0
VERTEX
  8
MY3DLAYER
10
-0.41683316512715063
20
38.10226483820563
30
5.017989607531777e-13
 70
     32
  0
VERTEX
  8
MY3DLAYER
10
-0.42026741255628686
20
38.07617913917168
30
5.017989607531777e-13
 70
     32
  0
VERTEX
  8
MY3DLAYER
10
-0.4168331651271515
20
38.05009344013772
30
5.017989607531777e-13
 70
     32
  0
VERTEX
  8
MY3DLAYER
10
-0.40676446112668607
20
38.025785438384275
30
5.017989607531777e-13
 70
     32
  0
VERTEX
  8
MY3DLAYER
10
-0.3907474660931989
20
38.00491168405996
30
5.017989607531777e-13
 70
     32
  0
VERTEX
  8
MY3DLAYER
10
-0.3698737117688857
20
37.98889468902647
30
5.017989607531777e-13
 70
     32
  0
VERTEX
  8
MY3DLAYER
10
-0.34556571001543723
20
37.978825985026006
30
5.017989607531777e-13
 70
     32
  0
VERTEX
  8
MY3DLAYER
10
-0.3194800109814828
20
37.97539173759687
30
5.017989607531777e-13
 70
     32
  0
VERTEX
  8
MY3DLAYER
10
-0.2933943119475284
20
37.978825985026006
30
5.017989607531777e-13
 70
     32
  0
VERTEX
  8
MY3DLAYER
10
-0.26908631019408347
20
37.988894689026466
30
5.017989607531777e-13
 70
     32
  0
VERTEX
  8
MY3DLAYER
10
-0.24821255586976676
20
38.00491168405996
30
5.017989607531777e-13
 70
     32
  0
VERTEX
  8
MY3DLAYER
10
-0.2321955608362778
20
38.025785438384275
30
5.017989607531777e-13
 70
     32
  0
VERTEX
  8
MY3DLAYER
10
-0.22212685683581368
20
38.050093440137715
30
5.017989607531777e-13
 70
     32
  0
VERTEX
  8
MY3DLAYER
10
-0.21869260940667834
20
38.07617913917167
30
5.017989607531777e-13
 70
     32
  0
VERTEX
  8
MY3DLAYER
10
-0.2221268568358119
20
38.10226483820563
30
5.017989607531777e-13
 70
     32
  0
VERTEX
  8
MY3DLAYER
10
-0.23219556083627735
20
38.126572839959074
30
5.017989607531777e-13
 70
     32
  0
VERTEX
  8
MY3DLAYER
10
-0.24821255586976587
20
38.14744659428339
30
5.017989607531777e-13
 70
     32
  0
SEQEND
  0
POLYLINE
 8
Component#46
 66
     1
70
    8
 10
0.0
 20
 0.0
 30
0.0
  0
VERTEX
  8
MY3DLAYER
10
1.7159312403536071
20
35.73972799607981
30
5.017989607531777e-13
 70
     32
  0
VERTEX
  8
MY3DLAYER
10
1.7089554252631811
20
35.79271457224253
30
5.017989607531777e-13
 70
     32
  0
VERTEX
  8
MY3DLAYER
10
1.7159312403536058
20
35.84570114840525
30
5.017989607531777e-13
 70
     32
  0
VERTEX
  8
MY3DLAYER
10
1.7363832953545546
20
35.89507677696694
30
5.017989607531777e-13
 70
     32
  0
VERTEX
  8
MY3DLAYER
10
1.768917816516328
20
35.937476590438195
30
5.017989607531777e-13
 70
     32
  0
VERTEX
  8
MY3DLAYER
10
1.811317629987588
20
35.97001111159997
30
5.017989607531777e-13
 70
     32
  0
VERTEX
  8
MY3DLAYER
10
1.8606932585492781
20
35.99046316660092
30
5.017989607531777e-13
 70
     32
  0
VERTEX
  8
MY3DLAYER
10
1.9136798347119992
20
35.997438981691346
30
5.017989607531777e-13
 70
     32
  0
VERTEX
  8
MY3DLAYER
10
1.9666664108747198
20
35.99046316660092
30
5.017989607531777e-13
 70
     32
  0
VERTEX
  8
MY3DLAYER
10
2.0160420394364085
20
35.970011111599966
30
5.017989607531777e-13
 70
     32
  0
VERTEX
  8
MY3DLAYER
10
2.0584418529076696
20
35.937476590438195
30
5.017989607531777e-13
 70
     32
  0
VERTEX
  8
MY3DLAYER
10
2.0909763740694416
20
35.89507677696693
30
5.017989607531777e-13
 70
     32
  0
VERTEX
  8
MY3DLAYER
10
2.11142842907039
20
35.84570114840525
30
5.017989607531777e-13
 70
     32
  0
VERTEX
  8
MY3DLAYER
10
2.118404244160816
20
35.792714572242524
30
5.017989607531777e-13
 70
     32
  0
VERTEX
  8
MY3DLAYER
10
2.111428429070389
20
35.73972799607981
30
5.017989607531777e-13
 70
     32
  0
VERTEX
  8
MY3DLAYER
10
2.0909763740694407
20
35.690352367518116
30
5.017989607531777e-13
 70
     32
  0
VERTEX
  8
MY3DLAYER
10
2.0584418529076682
20
35.64795255404685
30
5.017989607531777e-13
 70
     32
  0
VERTEX
  8
MY3DLAYER
10
2.0160420394364054
20
35.61541803288508
30
5.017989607531777e-13
 70
     32
  0
VERTEX
  8
MY3DLAYER
10
1.9666664108747178
20
35.59496597788414
30
5.017989607531777e-13
 70
     32
  0
VERTEX
  8
MY3DLAYER
10
1.913679834711997
20
35.58799016279371
30
5.017989607531777e-13
 70
     32
  0
VERTEX
  8
MY3DLAYER
10
1.8606932585492761
20
35.59496597788413
30
5.017989607531777e-13
 70
     32
  0
VERTEX
  8
MY3DLAYER
10
1.8113176299875877
20
35.61541803288508
30
5.017989607531777e-13
 70
     32
  0
VERTEX
  8
MY3DLAYER
10
1.7689178165163264
20
35.64795255404685
30
5.017989607531777e-13
 70
     32
  0
VERTEX
  8
MY3DLAYER
10
1.736383295354555
20
35.690352367518116
30
5.017989607531777e-13
 70
     32
  0
VERTEX
  8
MY3DLAYER
10
1.7159312403536071
20
35.73972799607981
30
5.017989607531777e-13
 70
     32
  0
SEQEND
  0
POLYLINE
 8
Component#46
 66
     1
70
    8
 10
0.0
 20
 0.0
 30
0.0
  0
VERTEX
  8
MY3DLAYER
10
1.8875941356780386
20
35.69536141809686
30
5.017989607531777e-13
 70
     32
  0
VERTEX
  8
MY3DLAYER
10
1.9136798347119939
20
35.691927170667725
30
5.017989607531777e-13
 70
     32
  0
VERTEX
  8
MY3DLAYER
10
1.9397655337459474
20
35.69536141809686
30
5.017989607531777e-13
 70
     32
  0
VERTEX
  8
MY3DLAYER
10
1.9640735354993932
20
35.705430122097326
30
5.017989607531777e-13
 70
     32
  0
VERTEX
  8
MY3DLAYER
10
1.9849472898237093
20
35.721447117130815
30
5.017989607531777e-13
 70
     32
  0
VERTEX
  8
MY3DLAYER
10
2.000964284857198
20
35.74232087145513
30
5.017989607531777e-13
 70
     32
  0
VERTEX
  8
MY3DLAYER
10
2.011032988857663
20
35.766628873208575
30
5.017989607531777e-13
 70
     32
  0
VERTEX
  8
MY3DLAYER
10
2.014467236286798
20
35.79271457224253
30
5.017989607531777e-13
 70
     32
  0
VERTEX
  8
MY3DLAYER
10
2.0110329888576643
20
35.81880027127648
30
5.017989607531777e-13
 70
     32
  0
VERTEX
  8
MY3DLAYER
10
2.000964284857198
20
35.84310827302993
30
5.017989607531777e-13
 70
     32
  0
VERTEX
  8
MY3DLAYER
10
1.98494728982371
20
35.86398202735424
30
5.017989607531777e-13
 70
     32
  0
VERTEX
  8
MY3DLAYER
10
1.964073535499397
20
35.87999902238773
30
5.017989607531777e-13
 70
     32
  0
VERTEX
  8
MY3DLAYER
10
1.9397655337459503
20
35.890067726388196
30
5.017989607531777e-13
 70
     32
  0
VERTEX
  8
MY3DLAYER
10
1.9136798347119959
20
35.89350197381733
30
5.017989607531777e-13
 70
     32
  0
VERTEX
  8
MY3DLAYER
10
1.8875941356780397
20
35.890067726388196
30
5.017989607531777e-13
 70
     32
  0
VERTEX
  8
MY3DLAYER
10
1.863286133924593
20
35.87999902238773
30
5.017989607531777e-13
 70
     32
  0
VERTEX
  8
MY3DLAYER
10
1.8424123796002796
20
35.86398202735424
30
5.017989607531777e-13
 70
     32
  0
VERTEX
  8
MY3DLAYER
10
1.8263953845667915
20
35.84310827302993
30
5.017989607531777e-13
 70
     32
  0
VERTEX
  8
MY3DLAYER
10
1.816326680566324
20
35.81880027127648
30
5.017989607531777e-13
 70
     32
  0
VERTEX
  8
MY3DLAYER
10
1.8128924331371923
20
35.79271457224253
30
5.017989607531777e-13
 70
     32
  0
VERTEX
  8
MY3DLAYER
10
1.8163266805663256
20
35.766628873208575
30
5.017989607531777e-13
 70
     32
  0
VERTEX
  8
MY3DLAYER
10
1.826395384566789
20
35.74232087145513
30
5.017989607531777e-13
 70
     32
  0
VERTEX
  8
MY3DLAYER
10
1.842412379600279
20
35.721447117130815
30
5.017989607531777e-13
 70
     32
  0
VERTEX
  8
MY3DLAYER
10
1.863286133924591
20
35.705430122097326
30
5.017989607531777e-13
 70
     32
  0
VERTEX
  8
MY3DLAYER
10
1.8875941356780386
20
35.69536141809686
30
5.017989607531777e-13
 70
     32
  0
SEQEND
  0
POLYLINE
 8
Component#46
 66
     1
70
    8
 10
0.0
 20
 0.0
 30
0.0
  0
VERTEX
  8
MY3DLAYER
10
-0.2690863101940808
20
38.163463589316876
30
5.017989607531777e-13
 70
     32
  0
VERTEX
  8
MY3DLAYER
10
-0.24821255586976587
20
38.14744659428339
30
5.017989607531777e-13
 70
     32
  0
VERTEX
  8
MY3DLAYER
10
-0.23219556083627735
20
38.126572839959074
30
5.017989607531777e-13
 70
     32
  0
VERTEX
  8
MY3DLAYER
10
-0.2221268568358119
20
38.10226483820563
30
5.017989607531777e-13
 70
     32
  0
VERTEX
  8
MY3DLAYER
10
-0.21869260940667834
20
38.07617913917167
30
5.017989607531777e-13
 70
     32
  0
VERTEX
  8
MY3DLAYER
10
-0.22212685683581368
20
38.050093440137715
30
5.017989607531777e-13
 70
     32
  0
VERTEX
  8
MY3DLAYER
10
-0.2321955608362778
20
38.025785438384275
30
5.017989607531777e-13
 70
     32
  0
VERTEX
  8
MY3DLAYER
10
-0.24821255586976676
20
38.00491168405996
30
5.017989607531777e-13
 70
     32
  0
VERTEX
  8
MY3DLAYER
10
-0.26908631019408347
20
37.988894689026466
30
5.017989607531777e-13
 70
     32
  0
VERTEX
  8
MY3DLAYER
10
-0.2933943119475284
20
37.978825985026006
30
5.017989607531777e-13
 70
     32
  0
VERTEX
  8
MY3DLAYER
10
-0.3194800109814828
20
37.97539173759687
30
5.017989607531777e-13
 70
     32
  0
VERTEX
  8
MY3DLAYER
10
-0.34556571001543723
20
37.978825985026006
30
5.017989607531777e-13
 70
     32
  0
VERTEX
  8
MY3DLAYER
10
-0.3698737117688857
20
37.98889468902647
30
5.017989607531777e-13
 70
     32
  0
VERTEX
  8
MY3DLAYER
10
-0.3907474660931989
20
38.00491168405996
30
5.017989607531777e-13
 70
     32
  0
VERTEX
  8
MY3DLAYER
10
-0.40676446112668607
20
38.025785438384275
30
5.017989607531777e-13
 70
     32
  0
VERTEX
  8
MY3DLAYER
10
-0.4168331651271515
20
38.05009344013772
30
5.017989607531777e-13
 70
     32
  0
VERTEX
  8
MY3DLAYER
10
-0.42026741255628686
20
38.07617913917168
30
5.017989607531777e-13
 70
     32
  0
VERTEX
  8
MY3DLAYER
10
-0.41683316512715063
20
38.10226483820563
30
5.017989607531777e-13
 70
     32
  0
VERTEX
  8
MY3DLAYER
10
-0.40676446112668696
20
38.126572839959074
30
5.017989607531777e-13
 70
     32
  0
VERTEX
  8
MY3DLAYER
10
-0.390747466093198
20
38.14744659428339
30
5.017989607531777e-13
 70
     32
  0
VERTEX
  8
MY3DLAYER
10
-0.36987371176888484
20
38.163463589316876
30
5.017989607531777e-13
 70
     32
  0
VERTEX
  8
MY3DLAYER
10
-0.34556571001543634
20
38.17353229331734
30
5.017989607531777e-13
 70
     32
  0
VERTEX
  8
MY3DLAYER
10
-0.31948001098148193
20
38.17696654074648
30
5.017989607531777e-13
 70
     32
  0
VERTEX
  8
MY3DLAYER
10
-0.2933943119475275
20
38.17353229331734
30
5.017989607531777e-13
 70
     32
  0
VERTEX
  8
MY3DLAYER
10
-0.2690863101940808
20
38.163463589316876
30
5.017989607531777e-13
 70
     32
  0
SEQEND
  0
POLYLINE
 8
Component#46
 66
     1
70
    8
 10
0.0
 20
 0.0
 30
0.0
  0
VERTEX
  8
MY3DLAYER
10
-4.230402185963271
20
38.96093386812051
30
5.017989607531777e-13
 70
     32
  0
VERTEX
  8
MY3DLAYER
10
-4.2060941842098245
20
38.950865164120046
30
5.017989607531777e-13
 70
     32
  0
VERTEX
  8
MY3DLAYER
10
-4.185220429885511
20
38.934848169086564
30
5.017989607531777e-13
 70
     32
  0
VERTEX
  8
MY3DLAYER
10
-4.169203434852022
20
38.913974414762244
30
5.017989607531777e-13
 70
     32
  0
VERTEX
  8
MY3DLAYER
10
-4.159134730851558
20
38.8896664130088
30
5.017989607531777e-13
 70
     32
  0
VERTEX
  8
MY3DLAYER
10
-4.155700483422424
20
38.86358071397484
30
5.017989607531777e-13
 70
     32
  0
VERTEX
  8
MY3DLAYER
10
-4.159134730851558
20
38.837495014940885
30
5.017989607531777e-13
 70
     32
  0
VERTEX
  8
MY3DLAYER
10
-4.169203434852023
20
38.813187013187445
30
5.017989607531777e-13
 70
     32
  0
VERTEX
  8
MY3DLAYER
10
-4.185220429885512
20
38.79231325886313
30
5.017989607531777e-13
 70
     32
  0
VERTEX
  8
MY3DLAYER
10
-4.206094184209829
20
38.77629626382964
30
5.017989607531777e-13
 70
     32
  0
VERTEX
  8
MY3DLAYER
10
-4.230402185963274
20
38.766227559829176
30
5.017989607531777e-13
 70
     32
  0
VERTEX
  8
MY3DLAYER
10
-4.256487884997223
20
38.76279331240004
30
5.017989607531777e-13
 70
     32
  0
VERTEX
  8
MY3DLAYER
10
-4.282573584031181
20
38.766227559829176
30
5.017989607531777e-13
 70
     32
  0
VERTEX
  8
MY3DLAYER
10
-4.306881585784628
20
38.77629626382964
30
5.017989607531777e-13
 70
     32
  0
VERTEX
  8
MY3DLAYER
10
-4.327755340108939
20
38.79231325886313
30
5.017989607531777e-13
 70
     32
  0
VERTEX
  8
MY3DLAYER
10
-4.34377233514243
20
38.813187013187445
30
5.017989607531777e-13
 70
     32
  0
VERTEX
  8
MY3DLAYER
10
-4.353841039142895
20
38.83749501494089
30
5.017989607531777e-13
 70
     32
  0
VERTEX
  8
MY3DLAYER
10
-4.357275286572027
20
38.86358071397485
30
5.017989607531777e-13
 70
     32
  0
VERTEX
  8
MY3DLAYER
10
-4.353841039142897
20
38.889666413008804
30
5.017989607531777e-13
 70
     32
  0
VERTEX
  8
MY3DLAYER
10
-4.343772335142428
20
38.91397441476225
30
5.017989607531777e-13
 70
     32
  0
VERTEX
  8
MY3DLAYER
10
-4.327755340108939
20
38.934848169086564
30
5.017989607531777e-13
 70
     32
  0
VERTEX
  8
MY3DLAYER
10
-4.306881585784626
20
38.950865164120046
30
5.017989607531777e-13
 70
     32
  0
VERTEX
  8
MY3DLAYER
10
-4.282573584031181
20
38.96093386812051
30
5.017989607531777e-13
 70
     32
  0
VERTEX
  8
MY3DLAYER
10
-4.256487884997225
20
38.96436811554965
30
5.017989607531777e-13
 70
     32
  0
VERTEX
  8
MY3DLAYER
10
-4.230402185963271
20
38.96093386812051
30
5.017989607531777e-13
 70
     32
  0
SEQEND
  0
POLYLINE
 8
Component#46
 66
     1
70
    8
 10
0.0
 20
 0.0
 30
0.0
  0
VERTEX
  8
MY3DLAYER
10
-4.230402185963278
20
37.97882598502602
30
5.017989607531777e-13
 70
     32
  0
VERTEX
  8
MY3DLAYER
10
-4.256487884997228
20
37.975391737596894
30
5.017989607531777e-13
 70
     32
  0
VERTEX
  8
MY3DLAYER
10
-4.282573584031188
20
37.97882598502603
30
5.017989607531777e-13
 70
     32
  0
VERTEX
  8
MY3DLAYER
10
-4.306881585784633
20
37.988894689026495
30
5.017989607531777e-13
 70
     32
  0
VERTEX
  8
MY3DLAYER
10
-4.327755340108944
20
38.004911684059984
30
5.017989607531777e-13
 70
     32
  0
VERTEX
  8
MY3DLAYER
10
-4.343772335142433
20
38.0257854383843
30
5.017989607531777e-13
 70
     32
  0
VERTEX
  8
MY3DLAYER
10
-4.3538410391429005
20
38.05009344013774
30
5.017989607531777e-13
 70
     32
  0
VERTEX
  8
MY3DLAYER
10
-4.357275286572032
20
38.0761791391717
30
5.017989607531777e-13
 70
     32
  0
VERTEX
  8
MY3DLAYER
10
-4.353841039142897
20
38.10226483820565
30
5.017989607531777e-13
 70
     32
  0
VERTEX
  8
MY3DLAYER
10
-4.343772335142433
20
38.126572839959096
30
5.017989607531777e-13
 70
     32
  0
VERTEX
  8
MY3DLAYER
10
-4.327755340108944
20
38.14744659428341
30
5.017989607531777e-13
 70
     32
  0
VERTEX
  8
MY3DLAYER
10
-4.306881585784629
20
38.1634635893169
30
5.017989607531777e-13
 70
     32
  0
VERTEX
  8
MY3DLAYER
10
-4.282573584031183
20
38.173532293317365
30
5.017989607531777e-13
 70
     32
  0
VERTEX
  8
MY3DLAYER
10
-4.256487884997228
20
38.1769665407465
30
5.017989607531777e-13
 70
     32
  0
VERTEX
  8
MY3DLAYER
10
-4.230402185963277
20
38.173532293317365
30
5.017989607531777e-13
 70
     32
  0
VERTEX
  8
MY3DLAYER
10
-4.206094184209829
20
38.1634635893169
30
5.017989607531777e-13
 70
     32
  0
VERTEX
  8
MY3DLAYER
10
-4.185220429885516
20
38.14744659428341
30
5.017989607531777e-13
 70
     32
  0
VERTEX
  8
MY3DLAYER
10
-4.169203434852025
20
38.126572839959096
30
5.017989607531777e-13
 70
     32
  0
VERTEX
  8
MY3DLAYER
10
-4.159134730851561
20
38.10226483820565
30
5.017989607531777e-13
 70
     32
  0
VERTEX
  8
MY3DLAYER
10
-4.155700483422429
20
38.07617913917169
30
5.017989607531777e-13
 70
     32
  0
VERTEX
  8
MY3DLAYER
10
-4.159134730851564
20
38.05009344013774
30
5.017989607531777e-13
 70
     32
  0
VERTEX
  8
MY3DLAYER
10
-4.169203434852028
20
38.02578543838429
30
5.017989607531777e-13
 70
     32
  0
VERTEX
  8
MY3DLAYER
10
-4.185220429885517
20
38.00491168405998
30
5.017989607531777e-13
 70
     32
  0
VERTEX
  8
MY3DLAYER
10
-4.206094184209832
20
37.988894689026495
30
5.017989607531777e-13
 70
     32
  0
VERTEX
  8
MY3DLAYER
10
-4.230402185963278
20
37.97882598502602
30
5.017989607531777e-13
 70
     32
  0
SEQEND
  0
POLYLINE
 8
Component#46
 66
     1
70
    8
 10
0.0
 20
 0.0
 30
0.0
  0
VERTEX
  8
MY3DLAYER
10
1.9136798347119939
20
35.691927170667725
30
5.017989607531777e-13
 70
     32
  0
VERTEX
  8
MY3DLAYER
10
1.8875941356780386
20
35.69536141809686
30
5.017989607531777e-13
 70
     32
  0
VERTEX
  8
MY3DLAYER
10
1.863286133924591
20
35.705430122097326
30
5.017989607531777e-13
 70
     32
  0
VERTEX
  8
MY3DLAYER
10
1.842412379600279
20
35.721447117130815
30
5.017989607531777e-13
 70
     32
  0
VERTEX
  8
MY3DLAYER
10
1.826395384566789
20
35.74232087145513
30
5.017989607531777e-13
 70
     32
  0
VERTEX
  8
MY3DLAYER
10
1.8163266805663256
20
35.766628873208575
30
5.017989607531777e-13
 70
     32
  0
VERTEX
  8
MY3DLAYER
10
1.8128924331371923
20
35.79271457224253
30
5.017989607531777e-13
 70
     32
  0
VERTEX
  8
MY3DLAYER
10
1.816326680566324
20
35.81880027127648
30
5.017989607531777e-13
 70
     32
  0
VERTEX
  8
MY3DLAYER
10
1.8263953845667915
20
35.84310827302993
30
5.017989607531777e-13
 70
     32
  0
VERTEX
  8
MY3DLAYER
10
1.8424123796002796
20
35.86398202735424
30
5.017989607531777e-13
 70
     32
  0
VERTEX
  8
MY3DLAYER
10
1.863286133924593
20
35.87999902238773
30
5.017989607531777e-13
 70
     32
  0
VERTEX
  8
MY3DLAYER
10
1.8875941356780397
20
35.890067726388196
30
5.017989607531777e-13
 70
     32
  0
VERTEX
  8
MY3DLAYER
10
1.9136798347119959
20
35.89350197381733
30
5.017989607531777e-13
 70
     32
  0
VERTEX
  8
MY3DLAYER
10
1.9397655337459503
20
35.890067726388196
30
5.017989607531777e-13
 70
     32
  0
VERTEX
  8
MY3DLAYER
10
1.964073535499397
20
35.87999902238773
30
5.017989607531777e-13
 70
     32
  0
VERTEX
  8
MY3DLAYER
10
1.98494728982371
20
35.86398202735424
30
5.017989607531777e-13
 70
     32
  0
VERTEX
  8
MY3DLAYER
10
2.000964284857198
20
35.84310827302993
30
5.017989607531777e-13
 70
     32
  0
VERTEX
  8
MY3DLAYER
10
2.0110329888576643
20
35.81880027127648
30
5.017989607531777e-13
 70
     32
  0
VERTEX
  8
MY3DLAYER
10
2.014467236286798
20
35.79271457224253
30
5.017989607531777e-13
 70
     32
  0
VERTEX
  8
MY3DLAYER
10
2.011032988857663
20
35.766628873208575
30
5.017989607531777e-13
 70
     32
  0
VERTEX
  8
MY3DLAYER
10
2.000964284857198
20
35.74232087145513
30
5.017989607531777e-13
 70
     32
  0
VERTEX
  8
MY3DLAYER
10
1.9849472898237093
20
35.721447117130815
30
5.017989607531777e-13
 70
     32
  0
VERTEX
  8
MY3DLAYER
10
1.9640735354993932
20
35.705430122097326
30
5.017989607531777e-13
 70
     32
  0
VERTEX
  8
MY3DLAYER
10
1.9397655337459474
20
35.69536141809686
30
5.017989607531777e-13
 70
     32
  0
VERTEX
  8
MY3DLAYER
10
1.9136798347119939
20
35.691927170667725
30
5.017989607531777e-13
 70
     32
  0
SEQEND
  0
POLYLINE
 8
Component#46
 66
     1
70
    8
 10
0.0
 20
 0.0
 30
0.0
  0
VERTEX
  8
MY3DLAYER
10
-0.24821255586976365
20
38.934848169086536
30
5.017989607531777e-13
 70
     32
  0
VERTEX
  8
MY3DLAYER
10
-0.23219556083627468
20
38.91397441476222
30
5.017989607531777e-13
 70
     32
  0
VERTEX
  8
MY3DLAYER
10
-0.22212685683580924
20
38.889666413008776
30
5.017989607531777e-13
 70
     32
  0
VERTEX
  8
MY3DLAYER
10
-0.21869260940667612
20
38.86358071397483
30
5.017989607531777e-13
 70
     32
  0
VERTEX
  8
MY3DLAYER
10
-0.22212685683580968
20
38.83749501494087
30
5.017989607531777e-13
 70
     32
  0
VERTEX
  8
MY3DLAYER
10
-0.23219556083627335
20
38.81318701318742
30
5.017989607531777e-13
 70
     32
  0
VERTEX
  8
MY3DLAYER
10
-0.2482125558697641
20
38.7923132588631
30
5.017989607531777e-13
 70
     32
  0
VERTEX
  8
MY3DLAYER
10
-0.269086310194079
20
38.77629626382962
30
5.017989607531777e-13
 70
     32
  0
VERTEX
  8
MY3DLAYER
10
-0.29339431194752574
20
38.766227559829154
30
5.017989607531777e-13
 70
     32
  0
VERTEX
  8
MY3DLAYER
10
-0.3194800109814766
20
38.76279331240002
30
5.017989607531777e-13
 70
     32
  0
VERTEX
  8
MY3DLAYER
10
-0.34556571001543457
20
38.766227559829154
30
5.017989607531777e-13
 70
     32
  0
VERTEX
  8
MY3DLAYER
10
-0.3698737117688813
20
38.77629626382962
30
5.017989607531777e-13
 70
     32
  0
VERTEX
  8
MY3DLAYER
10
-0.39074746609319444
20
38.79231325886311
30
5.017989607531777e-13
 70
     32
  0
VERTEX
  8
MY3DLAYER
10
-0.4067644611266834
20
38.813187013187424
30
5.017989607531777e-13
 70
     32
  0
VERTEX
  8
MY3DLAYER
10
-0.41683316512714885
20
38.83749501494087
30
5.017989607531777e-13
 70
     32
  0
VERTEX
  8
MY3DLAYER
10
-0.4202674125562824
20
38.86358071397483
30
5.017989607531777e-13
 70
     32
  0
VERTEX
  8
MY3DLAYER
10
-0.4168331651271471
20
38.88966641300878
30
5.017989607531777e-13
 70
     32
  0
VERTEX
  8
MY3DLAYER
10
-0.4067644611266825
20
38.91397441476223
30
5.017989607531777e-13
 70
     32
  0
VERTEX
  8
MY3DLAYER
10
-0.39074746609319355
20
38.93484816908654
30
5.017989607531777e-13
 70
     32
  0
VERTEX
  8
MY3DLAYER
10
-0.3698737117688786
20
38.95086516412003
30
5.017989607531777e-13
 70
     32
  0
VERTEX
  8
MY3DLAYER
10
-0.3455657100154319
20
38.96093386812049
30
5.017989607531777e-13
 70
     32
  0
VERTEX
  8
MY3DLAYER
10
-0.3194800109814757
20
38.964368115549625
30
5.017989607531777e-13
 70
     32
  0
VERTEX
  8
MY3DLAYER
10
-0.2933943119475231
20
38.96093386812049
30
5.017989607531777e-13
 70
     32
  0
VERTEX
  8
MY3DLAYER
10
-0.2690863101940746
20
38.950865164120025
30
5.017989607531777e-13
 70
     32
  0
VERTEX
  8
MY3DLAYER
10
-0.24821255586976365
20
38.934848169086536
30
5.017989607531777e-13
 70
     32
  0
SEQEND
  0
POLYLINE
 8
Component#50
 66
     1
70
    8
 10
0.0
 20
 0.0
 30
0.0
  0
VERTEX
  8
MY3DLAYER
10
3.4562001198762333
20
36.60529722200435
30
4.984346269054638e-13
 70
     32
  0
VERTEX
  8
MY3DLAYER
10
3.4786741606995992
20
36.641514065470005
30
4.984346269054638e-13
 70
     32
  0
VERTEX
  8
MY3DLAYER
10
3.503827851410292
20
36.675923862115376
30
4.984346269054638e-13
 70
     32
  0
VERTEX
  8
MY3DLAYER
10
3.5315165628041507
20
36.708328761789545
30
4.984346269054638e-13
 70
     32
  0
VERTEX
  8
MY3DLAYER
10
3.5615810897633735
20
36.73854244213907
30
4.984346269054638e-13
 70
     32
  0
VERTEX
  8
MY3DLAYER
10
3.5938485666573285
20
36.76639117992812
30
4.984346269054638e-13
 70
     32
  0
VERTEX
  8
MY3DLAYER
10
3.6281334612888885
20
36.79171484991586
30
4.984346269054638e-13
 70
     32
  0
VERTEX
  8
MY3DLAYER
10
3.6642386416712682
20
36.81436784554781
30
4.984346269054638e-13
 70
     32
  0
VERTEX
  8
MY3DLAYER
10
3.7019565095015086
20
36.83421991616741
30
4.984346269054638e-13
 70
     32
  0
VERTEX
  8
MY3DLAYER
10
3.7410701938134614
20
36.85115691593391
30
4.984346269054638e-13
 70
     32
  0
VERTEX
  8
MY3DLAYER
10
3.7813547979468844
20
36.86508146014041
30
4.984346269054638e-13
 70
     32
  0
VERTEX
  8
MY3DLAYER
10
3.822578692662854
20
36.87591348515847
30
4.984346269054638e-13
 70
     32
  0
VERTEX
  8
MY3DLAYER
10
3.864504847970278
20
36.88359070878961
30
4.984346269054638e-13
 70
     32
  0
VERTEX
  8
MY3DLAYER
10
3.9501029952156963
20
36.87719465314171
30
4.984346269054638e-13
 70
     32
  0
VERTEX
  8
MY3DLAYER
10
4.0351497936399525
20
36.865575943338854
30
4.984346269054638e-13
 70
     32
  0
VERTEX
  8
MY3DLAYER
10
4.119326891649219
20
36.848778071139144
30
4.984346269054638e-13
 70
     32
  0
VERTEX
  8
MY3DLAYER
10
4.202319193157434
20
36.82686391521041
30
4.984346269054638e-13
 70
     32
  0
VERTEX
  8
MY3DLAYER
10
4.283816037070348
20
36.79991550575951
30
4.984346269054638e-13
 70
     32
  0
VERTEX
  8
MY3DLAYER
10
4.363512360168266
20
36.7680337174726
30
4.984346269054638e-13
 70
     32
  0
VERTEX
  8
MY3DLAYER
10
4.4411098390345405
20
36.73133789191577
30
4.984346269054638e-13
 70
     32
  0
VERTEX
  8
MY3DLAYER
10
4.5163180067552915
20
36.68996539080952
30
4.984346269054638e-13
 70
     32
  0
VERTEX
  8
MY3DLAYER
10
4.588855340210218
20
36.64407108184917
30
4.984346269054638e-13
 70
     32
  0
VERTEX
  8
MY3DLAYER
10
4.658450313884605
20
36.59382675899612
30
4.984346269054638e-13
 70
     32
  0
VERTEX
  8
MY3DLAYER
10
4.7248424162577
20
36.53942049940976
30
4.984346269054638e-13
 70
     32
  0
VERTEX
  8
MY3DLAYER
10
4.787783124963006
20
36.481055959427216
30
4.984346269054638e-13
 70
     32
  0
VERTEX
  8
MY3DLAYER
10
4.847036837070077
20
36.418951612226465
30
4.984346269054638e-13
 70
     32
  0
VERTEX
  8
MY3DLAYER
10
4.902381751005669
20
36.35333993002611
30
4.984346269054638e-13
 70
     32
  0
VERTEX
  8
MY3DLAYER
10
4.9536106968129126
20
36.28446651388332
30
4.984346269054638e-13
 70
     32
  0
VERTEX
  8
MY3DLAYER
10
5.000531911640642
20
36.21258917434721
30
4.984346269054638e-13
 70
     32
  0
VERTEX
  8
MY3DLAYER
10
5.042969757560069
20
36.13797696640898
30
4.984346269054638e-13
 70
     32
  0
VERTEX
  8
MY3DLAYER
10
5.080765379021816
20
36.0609091823613
30
4.984346269054638e-13
 70
     32
  0
VERTEX
  8
MY3DLAYER
10
5.113777297492236
20
35.9816743063369
30
4.984346269054638e-13
 70
     32
  0
VERTEX
  8
MY3DLAYER
10
5.141881941043222
20
35.900568934439775
30
4.984346269054638e-13
 70
     32
  0
VERTEX
  8
MY3DLAYER
10
5.16497410691307
20
35.817896664511224
30
4.984346269054638e-13
 70
     32
  0
VERTEX
  8
MY3DLAYER
10
5.182967355306905
20
35.73396695968667
30
4.984346269054638e-13
 70
     32
  0
VERTEX
  8
MY3DLAYER
10
5.195794332962652
20
35.64909398999715
30
4.984346269054638e-13
 70
     32
  0
VERTEX
  8
MY3DLAYER
10
5.203407025271204
20
35.56359545635175
30
4.984346269054638e-13
 70
     32
  0
VERTEX
  8
MY3DLAYER
10
5.205776936007258
20
35.47779140130304
30
4.984346269054638e-13
 70
     32
  0
VERTEX
  8
MY3DLAYER
10
5.202895193997838
20
35.39200301104719
30
4.984346269054638e-13
 70
     32
  0
VERTEX
  8
MY3DLAYER
10
5.194772586329328
20
35.30655141314309
30
4.984346269054638e-13
 70
     32
  0
VERTEX
  8
MY3DLAYER
10
5.18143951796871
20
35.22175647445103
30
4.984346269054638e-13
 70
     32
  0
VERTEX
  8
MY3DLAYER
10
5.162945897950081
20
35.1379356037904
30
4.984346269054638e-13
 70
     32
  0
VERTEX
  8
MY3DLAYER
10
5.139360952552599
20
35.055402563798545
30
4.984346269054638e-13
 70
     32
  0
VERTEX
  8
MY3DLAYER
10
5.110772966169058
20
34.97446629643815
30
4.984346269054638e-13
 70
     32
  0
VERTEX
  8
MY3DLAYER
10
5.10509939073138
20
34.95821551557594
30
4.984346269054638e-13
 70
     32
  0
VERTEX
  8
MY3DLAYER
10
5.065074089828688
20
34.86325682851519
30
4.984346269054638e-13
 70
     32
  0
VERTEX
  8
MY3DLAYER
10
5.019428979776153
20
34.770867971562936
30
4.984346269054638e-13
 70
     32
  0
VERTEX
  8
MY3DLAYER
10
4.968328199191655
20
34.68138117262417
30
4.984346269054638e-13
 70
     32
  0
VERTEX
  8
MY3DLAYER
10
4.9119555051411155
20
34.59511822387944
30
4.984346269054638e-13
 70
     32
  0
VERTEX
  8
MY3DLAYER
10
4.8505136123529216
20
34.512389324628586
30
4.984346269054638e-13
 70
     32
  0
VERTEX
  8
MY3DLAYER
10
4.784223464261099
20
34.43349196582225
30
4.984346269054638e-13
 70
     32
  0
VERTEX
  8
MY3DLAYER
10
4.713323438498502
20
34.358709860292144
30
4.984346269054638e-13
 70
     32
  0
VERTEX
  8
MY3DLAYER
10
4.638068489697124
20
34.28831192252722
30
4.984346269054638e-13
 70
     32
  0
VERTEX
  8
MY3DLAYER
10
4.558729232677899
20
34.222551301664204
30
4.984346269054638e-13
 70
     32
  0
VERTEX
  8
MY3DLAYER
10
4.475590969326936
20
34.16166447116993
30
4.984346269054638e-13
 70
     32
  0
VERTEX
  8
MY3DLAYER
10
4.388952662656518
20
34.105870378490536
30
4.984346269054638e-13
 70
     32
  0
VERTEX
  8
MY3DLAYER
10
4.325912210879203
20
34.06080455025971
30
4.984346269054638e-13
 70
     32
  0
VERTEX
  8
MY3DLAYER
10
4.259358024675842
20
34.02111112847196
30
4.984346269054638e-13
 70
     32
  0
VERTEX
  8
MY3DLAYER
10
4.189746827492566
20
33.987062506456944
30
4.984346269054638e-13
 70
     32
  0
VERTEX
  8
MY3DLAYER
10
4.142592528639925
20
33.969534069054085
30
4.984346269054638e-13
 70
     32
  0
VERTEX
  8
MY3DLAYER
10
4.099560875739
20
33.95445402486548
30
4.984346269054638e-13
 70
     32
  0
VERTEX
  8
MY3DLAYER
10
4.055453565988498
20
33.94289218631411
30
4.984346269054638e-13
 70
     32
  0
VERTEX
  8
MY3DLAYER
10
4.010557730900082
20
33.934923819114424
30
4.984346269054638e-13
 70
     32
  0
VERTEX
  8
MY3DLAYER
10
3.965165635158906
20
33.93060079605876
30
4.984346269054638e-13
 70
     32
  0
VERTEX
  8
MY3DLAYER
10
3.9195727740273805
20
33.92995125933381
30
4.984346269054638e-13
 70
     32
  0
VERTEX
  8
MY3DLAYER
10
3.8740759497184
20
33.932979437319474
30
4.984346269054638e-13
 70
     32
  0
VERTEX
  8
MY3DLAYER
10
3.8289713392605322
20
33.939665617062765
30
4.984346269054638e-13
 70
     32
  0
VERTEX
  8
MY3DLAYER
10
3.784552566433104
20
33.949966272606034
30
4.984346269054638e-13
 70
     32
  0
VERTEX
  8
MY3DLAYER
10
3.7411087903224693
20
33.9638143483339
30
4.984346269054638e-13
 70
     32
  0
VERTEX
  8
MY3DLAYER
10
3.698922822942752
20
33.98111969549461
30
4.984346269054638e-13
 70
     32
  0
VERTEX
  8
MY3DLAYER
10
3.6582692881749708
20
34.00176965905391
30
4.984346269054638e-13
 70
     32
  0
VERTEX
  8
MY3DLAYER
10
3.6194128340096676
20
34.02562981106128
30
4.984346269054638e-13
 70
     32
  0
VERTEX
  8
MY3DLAYER
10
2.9837396005357464
20
34.51856514374816
30
4.984346269054638e-13
 70
     32
  0
VERTEX
  8
MY3DLAYER
10
2.922737086161406
20
34.581732417867435
30
4.984346269054638e-13
 70
     32
  0
VERTEX
  8
MY3DLAYER
10
2.8689617349755347
20
34.651155921700706
30
4.984346269054638e-13
 70
     32
  0
VERTEX
  8
MY3DLAYER
10
2.8230507296201526
20
34.72601305808001
30
4.984346269054638e-13
 70
     32
  0
VERTEX
  8
MY3DLAYER
10
2.7855480683220577
20
34.805416846876334
30
4.984346269054638e-13
 70
     32
  0
VERTEX
  8
MY3DLAYER
10
2.756898119072937
20
34.88842643480251
30
4.984346269054638e-13
 70
     32
  0
VERTEX
  8
MY3DLAYER
10
2.7374403543253907
20
34.97405824355767
30
4.984346269054638e-13
 70
     32
  0
VERTEX
  8
MY3DLAYER
10
2.727405328593266
20
35.06129762421919
30
4.984346269054638e-13
 70
     32
  0
VERTEX
  8
MY3DLAYER
10
2.7269119466176384
20
35.149110879789625
30
4.984346269054638e-13
 70
     32
  0
VERTEX
  8
MY3DLAYER
10
2.735966054467819
20
35.23645751344363
30
4.984346269054638e-13
 70
     32
  0
VERTEX
  8
MY3DLAYER
10
2.754460370271481
20
35.32230255734604
30
4.984346269054638e-13
 70
     32
  0
VERTEX
  8
MY3DLAYER
10
2.782175755394526
20
35.40562883595689
30
4.984346269054638e-13
 70
     32
  0
VERTEX
  8
MY3DLAYER
10
2.818783811008721
20
35.48544901851618
30
4.984346269054638e-13
 70
     32
  0
VERTEX
  8
MY3DLAYER
10
3.4562001198762333
20
36.60529722200435
30
4.984346269054638e-13
 70
     32
  0
SEQEND
  0
POLYLINE
 8
Component#50
 66
     1
70
    8
 10
0.0
 20
 0.0
 30
0.0
  0
VERTEX
  8
MY3DLAYER
10
3.3546078514317688
20
35.03631176304493
30
4.984346269054638e-13
 70
     32
  0
VERTEX
  8
MY3DLAYER
10
3.3646765554322378
20
35.06061976479837
30
4.984346269054638e-13
 70
     32
  0
VERTEX
  8
MY3DLAYER
10
3.3681108028613727
20
35.086705463832324
30
4.984346269054638e-13
 70
     32
  0
VERTEX
  8
MY3DLAYER
10
3.3646765554322333
20
35.11279116286628
30
4.984346269054638e-13
 70
     32
  0
VERTEX
  8
MY3DLAYER
10
3.3546078514317723
20
35.13709916461973
30
4.984346269054638e-13
 70
     32
  0
VERTEX
  8
MY3DLAYER
10
3.338590856398284
20
35.15797291894404
30
4.984346269054638e-13
 70
     32
  0
VERTEX
  8
MY3DLAYER
10
3.3177171020739737
20
35.173989913977536
30
4.984346269054638e-13
 70
     32
  0
VERTEX
  8
MY3DLAYER
10
3.293409100320527
20
35.184058617978
30
4.984346269054638e-13
 70
     32
  0
VERTEX
  8
MY3DLAYER
10
3.267323401286571
20
35.18749286540713
30
4.984346269054638e-13
 70
     32
  0
VERTEX
  8
MY3DLAYER
10
3.2412377022526155
20
35.184058617977996
30
4.984346269054638e-13
 70
     32
  0
VERTEX
  8
MY3DLAYER
10
3.2169297004991684
20
35.173989913977536
30
4.984346269054638e-13
 70
     32
  0
VERTEX
  8
MY3DLAYER
10
3.1960559461748552
20
35.15797291894405
30
4.984346269054638e-13
 70
     32
  0
VERTEX
  8
MY3DLAYER
10
3.1800389511413663
20
35.137099164619734
30
4.984346269054638e-13
 70
     32
  0
VERTEX
  8
MY3DLAYER
10
3.1699702471408973
20
35.11279116286629
30
4.984346269054638e-13
 70
     32
  0
VERTEX
  8
MY3DLAYER
10
3.166535999711762
20
35.08670546383233
30
4.984346269054638e-13
 70
     32
  0
VERTEX
  8
MY3DLAYER
10
3.169970247140897
20
35.06061976479838
30
4.984346269054638e-13
 70
     32
  0
VERTEX
  8
MY3DLAYER
10
3.1800389511413627
20
35.036311763044935
30
4.984346269054638e-13
 70
     32
  0
VERTEX
  8
MY3DLAYER
10
3.196055946174851
20
35.015438008720615
30
4.984346269054638e-13
 70
     32
  0
VERTEX
  8
MY3DLAYER
10
3.2169297004991613
20
34.999421013687126
30
4.984346269054638e-13
 70
     32
  0
VERTEX
  8
MY3DLAYER
10
3.241237702252608
20
34.98935230968666
30
4.984346269054638e-13
 70
     32
  0
VERTEX
  8
MY3DLAYER
10
3.267323401286561
20
34.985918062257525
30
4.984346269054638e-13
 70
     32
  0
VERTEX
  8
MY3DLAYER
10
3.2934091003205164
20
34.98935230968666
30
4.984346269054638e-13
 70
     32
  0
VERTEX
  8
MY3DLAYER
10
3.317717102073965
20
34.999421013687126
30
4.984346269054638e-13
 70
     32
  0
VERTEX
  8
MY3DLAYER
10
3.3385908563982802
20
35.015438008720615
30
4.984346269054638e-13
 70
     32
  0
VERTEX
  8
MY3DLAYER
10
3.3546078514317688
20
35.03631176304493
30
4.984346269054638e-13
 70
     32
  0
SEQEND
  0
POLYLINE
 8
Component#50
 66
     1
70
    8
 10
0.0
 20
 0.0
 30
0.0
  0
VERTEX
  8
MY3DLAYER
10
3.9790243304350486
20
34.36108990892637
30
4.984346269054638e-13
 70
     32
  0
VERTEX
  8
MY3DLAYER
10
3.995041325468532
20
34.340216154602054
30
4.984346269054638e-13
 70
     32
  0
VERTEX
  8
MY3DLAYER
10
4.015915079792846
20
34.324199159568565
30
4.984346269054638e-13
 70
     32
  0
VERTEX
  8
MY3DLAYER
10
4.0402230815462925
20
34.3141304555681
30
4.984346269054638e-13
 70
     32
  0
VERTEX
  8
MY3DLAYER
10
4.066308780580241
20
34.31069620813896
30
4.984346269054638e-13
 70
     32
  0
VERTEX
  8
MY3DLAYER
10
4.092394479614184
20
34.31413045556808
30
4.984346269054638e-13
 70
     32
  0
VERTEX
  8
MY3DLAYER
10
4.116702481367632
20
34.32419915956855
30
4.984346269054638e-13
 70
     32
  0
VERTEX
  8
MY3DLAYER
10
4.137576235691947
20
34.34021615460203
30
4.984346269054638e-13
 70
     32
  0
VERTEX
  8
MY3DLAYER
10
4.153593230725436
20
34.361089908926346
30
4.984346269054638e-13
 70
     32
  0
VERTEX
  8
MY3DLAYER
10
4.163661934725905
20
34.38539791067979
30
4.984346269054638e-13
 70
     32
  0
VERTEX
  8
MY3DLAYER
10
4.16709618215504
20
34.41148360971375
30
4.984346269054638e-13
 70
     32
  0
VERTEX
  8
MY3DLAYER
10
4.163661934725907
20
34.437569308747705
30
4.984346269054638e-13
 70
     32
  0
VERTEX
  8
MY3DLAYER
10
4.153593230725443
20
34.46187731050115
30
4.984346269054638e-13
 70
     32
  0
VERTEX
  8
MY3DLAYER
10
4.137576235691954
20
34.482751064825464
30
4.984346269054638e-13
 70
     32
  0
VERTEX
  8
MY3DLAYER
10
4.116702481367643
20
34.49876805985895
30
4.984346269054638e-13
 70
     32
  0
VERTEX
  8
MY3DLAYER
10
4.092394479614194
20
34.50883676385942
30
4.984346269054638e-13
 70
     32
  0
VERTEX
  8
MY3DLAYER
10
4.066308780580242
20
34.512271011288554
30
4.984346269054638e-13
 70
     32
  0
VERTEX
  8
MY3DLAYER
10
4.040223081546283
20
34.50883676385942
30
4.984346269054638e-13
 70
     32
  0
VERTEX
  8
MY3DLAYER
10
4.015915079792838
20
34.49876805985895
30
4.984346269054638e-13
 70
     32
  0
VERTEX
  8
MY3DLAYER
10
3.9950413254685224
20
34.48275106482547
30
4.984346269054638e-13
 70
     32
  0
VERTEX
  8
MY3DLAYER
10
3.979024330435046
20
34.461877310501166
30
4.984346269054638e-13
 70
     32
  0
VERTEX
  8
MY3DLAYER
10
3.968955626434583
20
34.43756930874772
30
4.984346269054638e-13
 70
     32
  0
VERTEX
  8
MY3DLAYER
10
3.965521379005448
20
34.41148360971377
30
4.984346269054638e-13
 70
     32
  0
VERTEX
  8
MY3DLAYER
10
3.9689556264345827
20
34.38539791067981
30
4.984346269054638e-13
 70
     32
  0
VERTEX
  8
MY3DLAYER
10
3.9790243304350486
20
34.36108990892637
30
4.984346269054638e-13
 70
     32
  0
SEQEND
  0
POLYLINE
 8
Component#50
 66
     1
70
    8
 10
0.0
 20
 0.0
 30
0.0
  0
VERTEX
  8
MY3DLAYER
10
3.6905752658153745
20
36.08117078518835
30
4.984346269054638e-13
 70
     32
  0
VERTEX
  8
MY3DLAYER
10
3.706592260848863
20
36.060297030864035
30
4.984346269054638e-13
 70
     32
  0
VERTEX
  8
MY3DLAYER
10
3.727466015173173
20
36.04428003583054
30
4.984346269054638e-13
 70
     32
  0
VERTEX
  8
MY3DLAYER
10
3.7517740169266194
20
36.03421133183007
30
4.984346269054638e-13
 70
     32
  0
VERTEX
  8
MY3DLAYER
10
3.777859715960573
20
36.03077708440094
30
4.984346269054638e-13
 70
     32
  0
VERTEX
  8
MY3DLAYER
10
3.80394541499453
20
36.03421133183007
30
4.984346269054638e-13
 70
     32
  0
VERTEX
  8
MY3DLAYER
10
3.8282534167479785
20
36.04428003583054
30
4.984346269054638e-13
 70
     32
  0
VERTEX
  8
MY3DLAYER
10
3.8491271710722916
20
36.06029703086403
30
4.984346269054638e-13
 70
     32
  0
VERTEX
  8
MY3DLAYER
10
3.8651441661057806
20
36.08117078518834
30
4.984346269054638e-13
 70
     32
  0
VERTEX
  8
MY3DLAYER
10
3.875212870106249
20
36.10547878694179
30
4.984346269054638e-13
 70
     32
  0
VERTEX
  8
MY3DLAYER
10
3.8786471175353845
20
36.13156448597574
30
4.984346269054638e-13
 70
     32
  0
VERTEX
  8
MY3DLAYER
10
3.8752128701062496
20
36.15765018500969
30
4.984346269054638e-13
 70
     32
  0
VERTEX
  8
MY3DLAYER
10
3.8651441661057837
20
36.18195818676314
30
4.984346269054638e-13
 70
     32
  0
VERTEX
  8
MY3DLAYER
10
3.849127171072297
20
36.20283194108745
30
4.984346269054638e-13
 70
     32
  0
VERTEX
  8
MY3DLAYER
10
3.8282534167479856
20
36.21884893612095
30
4.984346269054638e-13
 70
     32
  0
VERTEX
  8
MY3DLAYER
10
3.8039454149945384
20
36.228917640121416
30
4.984346269054638e-13
 70
     32
  0
VERTEX
  8
MY3DLAYER
10
3.7778597159605845
20
36.23235188755054
30
4.984346269054638e-13
 70
     32
  0
VERTEX
  8
MY3DLAYER
10
3.75177401692663
20
36.228917640121416
30
4.984346269054638e-13
 70
     32
  0
VERTEX
  8
MY3DLAYER
10
3.7274660151731815
20
36.21884893612095
30
4.984346269054638e-13
 70
     32
  0
VERTEX
  8
MY3DLAYER
10
3.7065922608488666
20
36.20283194108746
30
4.984346269054638e-13
 70
     32
  0
VERTEX
  8
MY3DLAYER
10
3.6905752658153776
20
36.18195818676315
30
4.984346269054638e-13
 70
     32
  0
VERTEX
  8
MY3DLAYER
10
3.6805065618149087
20
36.1576501850097
30
4.984346269054638e-13
 70
     32
  0
VERTEX
  8
MY3DLAYER
10
3.677072314385774
20
36.13156448597575
30
4.984346269054638e-13
 70
     32
  0
VERTEX
  8
MY3DLAYER
10
3.6805065618149087
20
36.105478786941795
30
4.984346269054638e-13
 70
     32
  0
VERTEX
  8
MY3DLAYER
10
3.6905752658153745
20
36.08117078518835
30
4.984346269054638e-13
 70
     32
  0
SEQEND
  0
POLYLINE
 8
Component#50
 66
     1
70
    8
 10
0.0
 20
 0.0
 30
0.0
  0
VERTEX
  8
MY3DLAYER
10
3.706592260848863
20
36.060297030864035
30
4.984346269054638e-13
 70
     32
  0
VERTEX
  8
MY3DLAYER
10
3.6905752658153745
20
36.08117078518835
30
4.984346269054638e-13
 70
     32
  0
VERTEX
  8
MY3DLAYER
10
3.6805065618149087
20
36.105478786941795
30
4.984346269054638e-13
 70
     32
  0
VERTEX
  8
MY3DLAYER
10
3.677072314385774
20
36.13156448597575
30
4.984346269054638e-13
 70
     32
  0
VERTEX
  8
MY3DLAYER
10
3.6805065618149087
20
36.1576501850097
30
4.984346269054638e-13
 70
     32
  0
VERTEX
  8
MY3DLAYER
10
3.6905752658153776
20
36.18195818676315
30
4.984346269054638e-13
 70
     32
  0
VERTEX
  8
MY3DLAYER
10
3.7065922608488666
20
36.20283194108746
30
4.984346269054638e-13
 70
     32
  0
VERTEX
  8
MY3DLAYER
10
3.7274660151731815
20
36.21884893612095
30
4.984346269054638e-13
 70
     32
  0
VERTEX
  8
MY3DLAYER
10
3.75177401692663
20
36.228917640121416
30
4.984346269054638e-13
 70
     32
  0
VERTEX
  8
MY3DLAYER
10
3.7778597159605845
20
36.23235188755054
30
4.984346269054638e-13
 70
     32
  0
VERTEX
  8
MY3DLAYER
10
3.8039454149945384
20
36.228917640121416
30
4.984346269054638e-13
 70
     32
  0
VERTEX
  8
MY3DLAYER
10
3.8282534167479856
20
36.21884893612095
30
4.984346269054638e-13
 70
     32
  0
VERTEX
  8
MY3DLAYER
10
3.849127171072297
20
36.20283194108745
30
4.984346269054638e-13
 70
     32
  0
VERTEX
  8
MY3DLAYER
10
3.8651441661057837
20
36.18195818676314
30
4.984346269054638e-13
 70
     32
  0
VERTEX
  8
MY3DLAYER
10
3.8752128701062496
20
36.15765018500969
30
4.984346269054638e-13
 70
     32
  0
VERTEX
  8
MY3DLAYER
10
3.8786471175353845
20
36.13156448597574
30
4.984346269054638e-13
 70
     32
  0
VERTEX
  8
MY3DLAYER
10
3.875212870106249
20
36.10547878694179
30
4.984346269054638e-13
 70
     32
  0
VERTEX
  8
MY3DLAYER
10
3.8651441661057806
20
36.08117078518834
30
4.984346269054638e-13
 70
     32
  0
VERTEX
  8
MY3DLAYER
10
3.8491271710722916
20
36.06029703086403
30
4.984346269054638e-13
 70
     32
  0
VERTEX
  8
MY3DLAYER
10
3.8282534167479785
20
36.04428003583054
30
4.984346269054638e-13
 70
     32
  0
VERTEX
  8
MY3DLAYER
10
3.80394541499453
20
36.03421133183007
30
4.984346269054638e-13
 70
     32
  0
VERTEX
  8
MY3DLAYER
10
3.777859715960573
20
36.03077708440094
30
4.984346269054638e-13
 70
     32
  0
VERTEX
  8
MY3DLAYER
10
3.7517740169266194
20
36.03421133183007
30
4.984346269054638e-13
 70
     32
  0
VERTEX
  8
MY3DLAYER
10
3.727466015173173
20
36.04428003583054
30
4.984346269054638e-13
 70
     32
  0
VERTEX
  8
MY3DLAYER
10
3.706592260848863
20
36.060297030864035
30
4.984346269054638e-13
 70
     32
  0
SEQEND
  0
POLYLINE
 8
Component#50
 66
     1
70
    8
 10
0.0
 20
 0.0
 30
0.0
  0
VERTEX
  8
MY3DLAYER
10
3.3646765554322378
20
35.06061976479837
30
4.984346269054638e-13
 70
     32
  0
VERTEX
  8
MY3DLAYER
10
3.3546078514317688
20
35.03631176304493
30
4.984346269054638e-13
 70
     32
  0
VERTEX
  8
MY3DLAYER
10
3.3385908563982802
20
35.015438008720615
30
4.984346269054638e-13
 70
     32
  0
VERTEX
  8
MY3DLAYER
10
3.317717102073965
20
34.999421013687126
30
4.984346269054638e-13
 70
     32
  0
VERTEX
  8
MY3DLAYER
10
3.2934091003205164
20
34.98935230968666
30
4.984346269054638e-13
 70
     32
  0
VERTEX
  8
MY3DLAYER
10
3.267323401286561
20
34.985918062257525
30
4.984346269054638e-13
 70
     32
  0
VERTEX
  8
MY3DLAYER
10
3.241237702252608
20
34.98935230968666
30
4.984346269054638e-13
 70
     32
  0
VERTEX
  8
MY3DLAYER
10
3.2169297004991613
20
34.999421013687126
30
4.984346269054638e-13
 70
     32
  0
VERTEX
  8
MY3DLAYER
10
3.196055946174851
20
35.015438008720615
30
4.984346269054638e-13
 70
     32
  0
VERTEX
  8
MY3DLAYER
10
3.1800389511413627
20
35.036311763044935
30
4.984346269054638e-13
 70
     32
  0
VERTEX
  8
MY3DLAYER
10
3.169970247140897
20
35.06061976479838
30
4.984346269054638e-13
 70
     32
  0
VERTEX
  8
MY3DLAYER
10
3.166535999711762
20
35.08670546383233
30
4.984346269054638e-13
 70
     32
  0
VERTEX
  8
MY3DLAYER
10
3.1699702471408973
20
35.11279116286629
30
4.984346269054638e-13
 70
     32
  0
VERTEX
  8
MY3DLAYER
10
3.1800389511413663
20
35.137099164619734
30
4.984346269054638e-13
 70
     32
  0
VERTEX
  8
MY3DLAYER
10
3.1960559461748552
20
35.15797291894405
30
4.984346269054638e-13
 70
     32
  0
VERTEX
  8
MY3DLAYER
10
3.2169297004991684
20
35.173989913977536
30
4.984346269054638e-13
 70
     32
  0
VERTEX
  8
MY3DLAYER
10
3.2412377022526155
20
35.184058617977996
30
4.984346269054638e-13
 70
     32
  0
VERTEX
  8
MY3DLAYER
10
3.267323401286571
20
35.18749286540713
30
4.984346269054638e-13
 70
     32
  0
VERTEX
  8
MY3DLAYER
10
3.293409100320527
20
35.184058617978
30
4.984346269054638e-13
 70
     32
  0
VERTEX
  8
MY3DLAYER
10
3.3177171020739737
20
35.173989913977536
30
4.984346269054638e-13
 70
     32
  0
VERTEX
  8
MY3DLAYER
10
3.338590856398284
20
35.15797291894404
30
4.984346269054638e-13
 70
     32
  0
VERTEX
  8
MY3DLAYER
10
3.3546078514317723
20
35.13709916461973
30
4.984346269054638e-13
 70
     32
  0
VERTEX
  8
MY3DLAYER
10
3.3646765554322333
20
35.11279116286628
30
4.984346269054638e-13
 70
     32
  0
VERTEX
  8
MY3DLAYER
10
3.3681108028613727
20
35.086705463832324
30
4.984346269054638e-13
 70
     32
  0
VERTEX
  8
MY3DLAYER
10
3.3646765554322378
20
35.06061976479837
30
4.984346269054638e-13
 70
     32
  0
SEQEND
  0
POLYLINE
 8
Component#50
 66
     1
70
    8
 10
0.0
 20
 0.0
 30
0.0
  0
VERTEX
  8
MY3DLAYER
10
3.995041325468532
20
34.340216154602054
30
4.984346269054638e-13
 70
     32
  0
VERTEX
  8
MY3DLAYER
10
3.9790243304350486
20
34.36108990892637
30
4.984346269054638e-13
 70
     32
  0
VERTEX
  8
MY3DLAYER
10
3.9689556264345827
20
34.38539791067981
30
4.984346269054638e-13
 70
     32
  0
VERTEX
  8
MY3DLAYER
10
3.965521379005448
20
34.41148360971377
30
4.984346269054638e-13
 70
     32
  0
VERTEX
  8
MY3DLAYER
10
3.968955626434583
20
34.43756930874772
30
4.984346269054638e-13
 70
     32
  0
VERTEX
  8
MY3DLAYER
10
3.979024330435046
20
34.461877310501166
30
4.984346269054638e-13
 70
     32
  0
VERTEX
  8
MY3DLAYER
10
3.9950413254685224
20
34.48275106482547
30
4.984346269054638e-13
 70
     32
  0
VERTEX
  8
MY3DLAYER
10
4.015915079792838
20
34.49876805985895
30
4.984346269054638e-13
 70
     32
  0
VERTEX
  8
MY3DLAYER
10
4.040223081546283
20
34.50883676385942
30
4.984346269054638e-13
 70
     32
  0
VERTEX
  8
MY3DLAYER
10
4.066308780580242
20
34.512271011288554
30
4.984346269054638e-13
 70
     32
  0
VERTEX
  8
MY3DLAYER
10
4.092394479614194
20
34.50883676385942
30
4.984346269054638e-13
 70
     32
  0
VERTEX
  8
MY3DLAYER
10
4.116702481367643
20
34.49876805985895
30
4.984346269054638e-13
 70
     32
  0
VERTEX
  8
MY3DLAYER
10
4.137576235691954
20
34.482751064825464
30
4.984346269054638e-13
 70
     32
  0
VERTEX
  8
MY3DLAYER
10
4.153593230725443
20
34.46187731050115
30
4.984346269054638e-13
 70
     32
  0
VERTEX
  8
MY3DLAYER
10
4.163661934725907
20
34.437569308747705
30
4.984346269054638e-13
 70
     32
  0
VERTEX
  8
MY3DLAYER
10
4.16709618215504
20
34.41148360971375
30
4.984346269054638e-13
 70
     32
  0
VERTEX
  8
MY3DLAYER
10
4.163661934725905
20
34.38539791067979
30
4.984346269054638e-13
 70
     32
  0
VERTEX
  8
MY3DLAYER
10
4.153593230725436
20
34.361089908926346
30
4.984346269054638e-13
 70
     32
  0
VERTEX
  8
MY3DLAYER
10
4.137576235691947
20
34.34021615460203
30
4.984346269054638e-13
 70
     32
  0
VERTEX
  8
MY3DLAYER
10
4.116702481367632
20
34.32419915956855
30
4.984346269054638e-13
 70
     32
  0
VERTEX
  8
MY3DLAYER
10
4.092394479614184
20
34.31413045556808
30
4.984346269054638e-13
 70
     32
  0
VERTEX
  8
MY3DLAYER
10
4.066308780580241
20
34.31069620813896
30
4.984346269054638e-13
 70
     32
  0
VERTEX
  8
MY3DLAYER
10
4.0402230815462925
20
34.3141304555681
30
4.984346269054638e-13
 70
     32
  0
VERTEX
  8
MY3DLAYER
10
4.015915079792846
20
34.324199159568565
30
4.984346269054638e-13
 70
     32
  0
VERTEX
  8
MY3DLAYER
10
3.995041325468532
20
34.340216154602054
30
4.984346269054638e-13
 70
     32
  0
SEQEND
 0
ENDSEC
 0
EOF
